  0
SECTION
  2
HEADER
  9
$ACADVER
  1
AC1015
  9
$ACADMAINTVER
 70
     6
  9
$DWGCODEPAGE
  3
ANSI_1254
  9
$INSBASE
 10
0.0
 20
0.0
 30
0.0
  9
$EXTMIN
 10
0.0
 20
0.0
 30
0.0
  9
$EXTMAX
 10
279.4
 20
215.9
 30
0.0
  9
$LIMMIN
 10
0.0
 20
0.0
  9
$LIMMAX
 10
279.4
 20
215.9
  9
$ORTHOMODE
 70
     0
  9
$REGENMODE
 70
     1
  9
$FILLMODE
 70
     1
  9
$QTEXTMODE
 70
     0
  9
$MIRRTEXT
 70
     1
  9
$LTSCALE
 40
1.0
  9
$ATTMODE
 70
     1
  9
$TEXTSIZE
 40
3.5
  9
$TRACEWID
 40
1.0
  9
$TEXTSTYLE
  7
Standard
  9
$CLAYER
  8
0
  9
$CELTYPE
  6
ByLayer
  9
$CECOLOR
 62
   256
  9
$CELTSCALE
 40
1.0
  9
$DISPSILH
 70
     0
  9
$DIMSCALE
 40
1.0
  9
$DIMASZ
 40
3.5
  9
$DIMEXO
 40
1.0
  9
$DIMDLI
 40
3.75
  9
$DIMRND
 40
0.0
  9
$DIMDLE
 40
0.0
  9
$DIMEXE
 40
1.0
  9
$DIMTP
 40
0.0
  9
$DIMTM
 40
0.0
  9
$DIMTXT
 40
3.5
  9
$DIMCEN
 40
2.5
  9
$DIMTSZ
 40
0.0
  9
$DIMTOL
 70
     0
  9
$DIMLIM
 70
     0
  9
$DIMTIH
 70
     1
  9
$DIMTOH
 70
     1
  9
$DIMSE1
 70
     0
  9
$DIMSE2
 70
     0
  9
$DIMTAD
 70
     1
  9
$DIMZIN
 70
     0
  9
$DIMBLK
  1

  9
$DIMASO
 70
     1
  9
$DIMSHO
 70
     1
  9
$DIMPOST
  1

  9
$DIMAPOST
  1

  9
$DIMALT
 70
     0
  9
$DIMALTD
 70
     3
  9
$DIMALTF
 40
0.0393700787
  9
$DIMLFAC
 40
1.0
  9
$DIMTOFL
 70
     1
  9
$DIMTVP
 40
0.0
  9
$DIMTIX
 70
     0
  9
$DIMSOXD
 70
     0
  9
$DIMSAH
 70
     0
  9
$DIMBLK1
  1

  9
$DIMBLK2
  1

  9
$DIMSTYLE
  2
ISO-25
  9
$DIMCLRD
 70
     0
  9
$DIMCLRE
 70
     0
  9
$DIMCLRT
 70
     0
  9
$DIMTFAC
 40
1.0
  9
$DIMGAP
 40
1.524
  9
$DIMJUST
 70
     0
  9
$DIMSD1
 70
     0
  9
$DIMSD2
 70
     0
  9
$DIMTOLJ
 70
     0
  9
$DIMTZIN
 70
     0
  9
$DIMALTZ
 70
     0
  9
$DIMALTTZ
 70
     0
  9
$DIMUPT
 70
     0
  9
$DIMDEC
 70
     2
  9
$DIMTDEC
 70
     2
  9
$DIMALTU
 70
     2
  9
$DIMALTTD
 70
     3
  9
$DIMTXSTY
  7
Standard
  9
$DIMAUNIT
 70
     0
  9
$DIMADEC
 70
     2
  9
$DIMALTRND
 40
0.0
  9
$DIMAZIN
 70
     0
  9
$DIMDSEP
 70
    44
  9
$DIMATFIT
 70
     3
  9
$DIMFRAC
 70
     0
  9
$DIMLDRBLK
  1

  9
$DIMLUNIT
 70
     2
  9
$DIMLWD
 70
    -2
  9
$DIMLWE
 70
    -2
  9
$DIMTMOVE
 70
     0
  9
$LUNITS
 70
     2
  9
$LUPREC
 70
     2
  9
$SKETCHINC
 40
1.0
  9
$FILLETRAD
 40
10.0
  9
$AUNITS
 70
     0
  9
$AUPREC
 70
     2
  9
$MENU
  1
.
  9
$ELEVATION
 40
0.0
  9
$PELEVATION
 40
0.0
  9
$THICKNESS
 40
0.0
  9
$LIMCHECK
 70
     0
  9
$CHAMFERA
 40
0.0
  9
$CHAMFERB
 40
0.0
  9
$CHAMFERC
 40
0.0
  9
$CHAMFERD
 40
0.0
  9
$SKPOLY
 70
     0
  9
$TDCREATE
 40
2460665.614577997
  9
$TDUCREATE
 40
2460665.489577997
  9
$TDUPDATE
 40
2460665.614578102
  9
$TDUUPDATE
 40
2460665.489578102
  9
$TDINDWG
 40
0.0000000116
  9
$TDUSRTIMER
 40
0.0000000116
  9
$USRTIMER
 70
     1
  9
$ANGBASE
 50
0.0
  9
$ANGDIR
 70
     0
  9
$PDMODE
 70
     0
  9
$PDSIZE
 40
-1.0
  9
$PLINEWID
 40
0.0
  9
$SPLFRAME
 70
     0
  9
$SPLINETYPE
 70
     6
  9
$SPLINESEGS
 70
     8
  9
$HANDSEED
  5
11F
  9
$SURFTAB1
 70
     6
  9
$SURFTAB2
 70
     6
  9
$SURFTYPE
 70
     6
  9
$SURFU
 70
     6
  9
$SURFV
 70
     6
  9
$UCSBASE
  2

  9
$UCSNAME
  2

  9
$UCSORG
 10
0.0
 20
0.0
 30
0.0
  9
$UCSXDIR
 10
1.0
 20
0.0
 30
0.0
  9
$UCSYDIR
 10
0.0
 20
1.0
 30
0.0
  9
$UCSORTHOREF
  2

  9
$UCSORTHOVIEW
 70
     0
  9
$UCSORGTOP
 10
0.0
 20
0.0
 30
0.0
  9
$UCSORGBOTTOM
 10
0.0
 20
0.0
 30
0.0
  9
$UCSORGLEFT
 10
0.0
 20
0.0
 30
0.0
  9
$UCSORGRIGHT
 10
0.0
 20
0.0
 30
0.0
  9
$UCSORGFRONT
 10
0.0
 20
0.0
 30
0.0
  9
$UCSORGBACK
 10
0.0
 20
0.0
 30
0.0
  9
$PUCSBASE
  2

  9
$PUCSNAME
  2

  9
$PUCSORG
 10
0.0
 20
0.0
 30
0.0
  9
$PUCSXDIR
 10
1.0
 20
0.0
 30
0.0
  9
$PUCSYDIR
 10
0.0
 20
1.0
 30
0.0
  9
$PUCSORTHOREF
  2

  9
$PUCSORTHOVIEW
 70
     0
  9
$PUCSORGTOP
 10
0.0
 20
0.0
 30
0.0
  9
$PUCSORGBOTTOM
 10
0.0
 20
0.0
 30
0.0
  9
$PUCSORGLEFT
 10
0.0
 20
0.0
 30
0.0
  9
$PUCSORGRIGHT
 10
0.0
 20
0.0
 30
0.0
  9
$PUCSORGFRONT
 10
0.0
 20
0.0
 30
0.0
  9
$PUCSORGBACK
 10
0.0
 20
0.0
 30
0.0
  9
$USERI1
 70
     0
  9
$USERI2
 70
     0
  9
$USERI3
 70
     0
  9
$USERI4
 70
     0
  9
$USERI5
 70
     0
  9
$USERR1
 40
0.0
  9
$USERR2
 40
0.0
  9
$USERR3
 40
0.0
  9
$USERR4
 40
0.0
  9
$USERR5
 40
0.0
  9
$WORLDVIEW
 70
     1
  9
$SHADEDGE
 70
     3
  9
$SHADEDIF
 70
    70
  9
$TILEMODE
 70
     1
  9
$MAXACTVP
 70
    64
  9
$PINSBASE
 10
0.0
 20
0.0
 30
0.0
  9
$PLIMCHECK
 70
     0
  9
$PEXTMIN
 10
1.0000000000E+20
 20
1.0000000000E+20
 30
1.0000000000E+20
  9
$PEXTMAX
 10
-1.0000000000E+20
 20
-1.0000000000E+20
 30
-1.0000000000E+20
  9
$PLIMMIN
 10
0.0
 20
0.0
  9
$PLIMMAX
 10
420.0
 20
297.0
  9
$UNITMODE
 70
     0
  9
$VISRETAIN
 70
     1
  9
$PLINEGEN
 70
     0
  9
$PSLTSCALE
 70
     1
  9
$TREEDEPTH
 70
  3020
  9
$CMLSTYLE
  2
Standard
  9
$CMLJUST
 70
     0
  9
$CMLSCALE
 40
20.0
  9
$PROXYGRAPHICS
 70
     1
  9
$MEASUREMENT
 70
     1
  9
$CELWEIGHT
370
    -1
  9
$ENDCAPS
280
     0
  9
$JOINSTYLE
280
     0
  9
$LWDISPLAY
290
     1
  9
$INSUNITS
 70
     4
  9
$HYPERLINKBASE
  1

  9
$STYLESHEET
  1

  9
$XEDIT
290
     1
  9
$CEPSNTYPE
380
     0
  9
$PSTYLEMODE
290
     1
  9
$FINGERPRINTGUID
  2
{51e1ff92-84e3-49ed-98fd-e05ed53a5a90}
  9
$VERSIONGUID
  2
{FAEB1C32-E019-11D5-929B-00C0DF256EC4}
  9
$EXTNAMES
290
     1
  9
$PSVPSCALE
 40
0.0
  9
$OLESTARTUP
290
     0
  0
ENDSEC
  0
SECTION
  2
CLASSES
  0
CLASS
  1
ACDBDICTIONARYWDFLT
  2
AcDbDictionaryWithDefault
  3
ObjectDBX Classes
 90
        0
280
     0
281
     0
  0
CLASS
  1
VISUALSTYLE
  2
AcDbVisualStyle
  3
ObjectDBX Classes
 90
     4095
280
     0
281
     0
  0
CLASS
  1
MATERIAL
  2
AcDbMaterial
  3
ObjectDBX Classes
 90
     1153
280
     0
281
     0
  0
CLASS
  1
SCALE
  2
AcDbScale
  3
ObjectDBX Classes
 90
     1153
280
     0
281
     0
  0
CLASS
  1
TABLESTYLE
  2
AcDbTableStyle
  3
ObjectDBX Classes
 90
     4095
280
     0
281
     0
  0
CLASS
  1
MLEADERSTYLE
  2
AcDbMLeaderStyle
  3
ACDB_MLEADERSTYLE_CLASS
 90
     4095
280
     0
281
     0
  0
CLASS
  1
SUN
  2
AcDbSun
  3
SCENEOE
 90
     1153
280
     0
281
     0
  0
CLASS
  1
ACDBPLACEHOLDER
  2
AcDbPlaceHolder
  3
ObjectDBX Classes
 90
        0
280
     0
281
     0
  0
CLASS
  1
LAYOUT
  2
AcDbLayout
  3
ObjectDBX Classes
 90
        0
280
     0
281
     0
  0
ENDSEC
  0
SECTION
  2
TABLES
  0
TABLE
  2
VPORT
  5
8
330
0
100
AcDbSymbolTable
 70
     1
  0
VPORT
  5
29
330
8
100
AcDbSymbolTableRecord
100
AcDbViewportTableRecord
  2
*Active
 70
     0
 10
0.0
 20
0.0
 11
1.0
 21
1.0
 12
139.7
 22
107.95
 13
0.0
 23
0.0
 14
10.0
 24
10.0
 15
10.0
 25
10.0
 16
0.0
 26
0.0
 36
1.0
 17
0.0
 27
0.0
 37
0.0
 40
215.9
 41
1.2941176471
 42
50.0
 43
0.0
 44
0.0
 50
0.0
 51
0.0
 71
     0
 72
  2000
 73
     1
 74
     3
 75
     0
 76
     0
 77
     0
 78
     0
281
     0
 65
     1
110
0.0
120
0.0
130
0.0
111
1.0
121
0.0
131
0.0
112
0.0
122
1.0
132
0.0
 79
     0
146
0.0
  0
ENDTAB
  0
TABLE
  2
LTYPE
  5
5
330
0
100
AcDbSymbolTable
 70
     6
  0
LTYPE
  5
14
330
5
100
AcDbSymbolTableRecord
100
AcDbLinetypeTableRecord
  2
ByBlock
 70
     0
  3

 72
    65
 73
     0
 40
0.0
  0
LTYPE
  5
15
330
5
100
AcDbSymbolTableRecord
100
AcDbLinetypeTableRecord
  2
ByLayer
 70
     0
  3

 72
    65
 73
     0
 40
0.0
  0
LTYPE
  5
16
330
5
100
AcDbSymbolTableRecord
100
AcDbLinetypeTableRecord
  2
Continuous
 70
     0
  3
Solid line
 72
    65
 73
     0
 40
0.0
  0
LTYPE
  5
6E
330
5
100
AcDbSymbolTableRecord
100
AcDbLinetypeTableRecord
  2
HIDDEN
 70
     0
  3
Hidden __ __ __ __ __ __ __ __ __ __ __ __ __ __
 72
    65
 73
     2
 40
1.905
 49
1.27
 74
     0
 49
-0.635
 74
     0
  0
LTYPE
  5
6F
330
5
100
AcDbSymbolTableRecord
100
AcDbLinetypeTableRecord
  2
PHANTOM
 70
     0
  3
Phantom ______  __  __  ______  __  __  ______
 72
    65
 73
     6
 40
12.7
 49
6.35
 74
     0
 49
-1.27
 74
     0
 49
1.27
 74
     0
 49
-1.27
 74
     0
 49
1.27
 74
     0
 49
-1.27
 74
     0
  0
LTYPE
  5
70
330
5
100
AcDbSymbolTableRecord
100
AcDbLinetypeTableRecord
  2
CENTER
 70
     0
  3
Center ____ _ ____ _ ____ _ ____ _ ____ _ ____
 72
    65
 73
     4
 40
10.16
 49
6.35
 74
     0
 49
-1.27
 74
     0
 49
1.27
 74
     0
 49
-1.27
 74
     0
  0
LTYPE
  5
71
330
5
100
AcDbSymbolTableRecord
100
AcDbLinetypeTableRecord
  2
CENTERX2
 70
     0
  3
Center (2x) ________  __  ________  __  _____
 72
    65
 73
     4
 40
20.32
 49
12.7
 74
     0
 49
-2.54
 74
     0
 49
2.54
 74
     0
 49
-2.54
 74
     0
  0
LTYPE
  5
72
330
5
100
AcDbSymbolTableRecord
100
AcDbLinetypeTableRecord
  2
DOT2
 70
     0
  3
Dot (.5x) ........................................
 72
    65
 73
     2
 40
0.635
 49
0.0
 74
     0
 49
-0.635
 74
     0
  0
ENDTAB
  0
TABLE
  2
LAYER
  5
2
330
0
100
AcDbSymbolTable
 70
    17
  0
LAYER
  5
10
330
2
100
AcDbSymbolTableRecord
100
AcDbLayerTableRecord
  2
0
 70
     0
 62
     7
  6
Continuous
370
    -3
390
F
  0
LAYER
  5
73
330
2
100
AcDbSymbolTableRecord
100
AcDbLayerTableRecord
  2
FORMAT
 70
     0
 62
     7
  6
Continuous
370
    -3
390
F
  0
LAYER
  5
74
330
2
100
AcDbSymbolTableRecord
100
AcDbLayerTableRecord
  2
YARDIMCI_GEOMETRI
 70
     0
 62
    -6
  6
Continuous
290
     0
370
    -3
390
F
  0
LAYER
  5
75
330
2
100
AcDbSymbolTableRecord
100
AcDbLayerTableRecord
  2
SAYFA_CERCEVESI
 70
     0
 62
     7
  6
Continuous
370
    25
390
F
  0
LAYER
  5
76
330
2
100
AcDbSymbolTableRecord
100
AcDbLayerTableRecord
  2
ANTET
 70
     0
 62
     7
  6
Continuous
370
    -3
390
F
  0
LAYER
  5
77
330
2
100
AcDbSymbolTableRecord
100
AcDbLayerTableRecord
  2
OLCU
 70
     0
 62
   150
  6
Continuous
370
    -3
390
F
  0
LAYER
  5
78
330
2
100
AcDbSymbolTableRecord
100
AcDbLayerTableRecord
  2
METIN
 70
     0
 62
    96
  6
Continuous
370
    -3
390
F
  0
LAYER
  5
79
330
2
100
AcDbSymbolTableRecord
100
AcDbLayerTableRecord
  2
BALON
 70
     0
 62
     5
  6
Continuous
370
    -3
390
F
  0
LAYER
  5
7A
330
2
100
AcDbSymbolTableRecord
100
AcDbLayerTableRecord
  2
VURGU
 70
     0
 62
     7
  6
Continuous
370
    -3
390
F
  0
LAYER
  5
7B
330
2
100
AcDbSymbolTableRecord
100
AcDbLayerTableRecord
  2
SILIK
 70
     0
 62
     7
  6
Continuous
370
    -3
390
F
  0
LAYER
  5
7C
330
2
100
AcDbSymbolTableRecord
100
AcDbLayerTableRecord
  2
MODEL
 70
     0
 62
     7
  6
Continuous
370
    -3
390
F
  0
LAYER
  5
7D
330
2
100
AcDbSymbolTableRecord
100
AcDbLayerTableRecord
  2
DETAYLANDıRMA
 70
     0
 62
   190
  6
Continuous
370
    -3
390
F
  0
LAYER
  5
7E
330
2
100
AcDbSymbolTableRecord
100
AcDbLayerTableRecord
  2
TOLERANS
 70
     0
 62
   230
  6
Continuous
370
    -3
390
F
  0
LAYER
  5
7F
330
2
100
AcDbSymbolTableRecord
100
AcDbLayerTableRecord
  2
MERKEZ_CIZGILERI
 70
     0
 62
    30
  6
Continuous
370
    -3
390
F
  0
LAYER
  5
80
330
2
100
AcDbSymbolTableRecord
100
AcDbLayerTableRecord
  2
KESIT-DETAY_CIZGILERI
 70
     0
 62
     7
  6
Continuous
370
    -3
390
F
  0
LAYER
  5
81
330
2
100
AcDbSymbolTableRecord
100
AcDbLayerTableRecord
  2
\U+041E\U+0421\U+0415\U+0412\U+042B\U+0415
 70
     0
 62
     7
  6
Continuous
370
    -3
390
F
  0
LAYER
  5
82
330
2
100
AcDbSymbolTableRecord
100
AcDbLayerTableRecord
  2
\U+0412\U+041E\U+0414\U+042F\U+041D\U+042B\U+0415_\U+0417\U+041D\U+0410\U+041A\U+0418
 70
     0
 62
    11
  6
Continuous
370
    -3
390
F
  0
ENDTAB
  0
TABLE
  2
STYLE
  5
3
330
0
100
AcDbSymbolTable
 70
     1
  0
STYLE
  5
11
330
3
100
AcDbSymbolTableRecord
100
AcDbTextStyleTableRecord
  2
Standard
 70
     0
 40
0.0
 41
1.0
 50
0.0
 71
     0
 42
3.5
  3
txt
  4

  0
ENDTAB
  0
TABLE
  2
VIEW
  5
6
330
0
100
AcDbSymbolTable
 70
     0
  0
ENDTAB
  0
TABLE
  2
UCS
  5
7
330
0
100
AcDbSymbolTable
 70
     0
  0
ENDTAB
  0
TABLE
  2
APPID
  5
9
330
0
100
AcDbSymbolTable
 70
     1
  0
APPID
  5
12
330
9
100
AcDbSymbolTableRecord
100
AcDbRegAppTableRecord
  2
ACAD
 70
     0
  0
ENDTAB
  0
TABLE
  2
DIMSTYLE
  5
A
330
0
100
AcDbSymbolTable
 70
     1
100
AcDbDimStyleTable
  0
DIMSTYLE
105
27
330
A
100
AcDbSymbolTableRecord
100
AcDbDimStyleTableRecord
  2
ISO-25
 70
     0
 41
2.5
 42
0.625
 43
3.75
 44
1.25
 73
     0
 74
     0
 77
     1
 78
     8
140
2.5
141
2.5
143
0.0393700787
147
0.625
171
     3
172
     1
178
     0
271
     2
272
     2
274
     3
278
    44
283
     0
284
     8
340
11
  0
ENDTAB
  0
TABLE
  2
BLOCK_RECORD
  5
1
330
0
100
AcDbSymbolTable
 70
     5
  0
BLOCK_RECORD
  5
1F
330
1
100
AcDbSymbolTableRecord
100
AcDbBlockTableRecord
  2
*Model_Space
340
22
  0
BLOCK_RECORD
  5
1B
330
1
100
AcDbSymbolTableRecord
100
AcDbBlockTableRecord
  2
*Paper_Space
340
1E
  0
BLOCK_RECORD
  5
23
330
1
100
AcDbSymbolTableRecord
100
AcDbBlockTableRecord
  2
*Paper_Space0
340
26
  0
BLOCK_RECORD
  5
A5
330
1
100
AcDbSymbolTableRecord
100
AcDbBlockTableRecord
  2
SW_CENTERMARKSYMBOL_0
340
0
102
{BLKREFS
331
B0
102
}
  0
BLOCK_RECORD
  5
C1
330
1
100
AcDbSymbolTableRecord
100
AcDbBlockTableRecord
  2
SW_CENTERMARKSYMBOL_1
340
0
102
{BLKREFS
331
CC
102
}
  0
BLOCK_RECORD
  5
DE
330
1
100
AcDbSymbolTableRecord
100
AcDbBlockTableRecord
  2
SW_CENTERMARKSYMBOL_2
340
0
102
{BLKREFS
331
E9
102
}
  0
BLOCK_RECORD
  5
F9
330
1
100
AcDbSymbolTableRecord
100
AcDbBlockTableRecord
  2
SW_CENTERMARKSYMBOL_3
340
0
102
{BLKREFS
331
104
102
}
  0
ENDTAB
  0
ENDSEC
  0
SECTION
  2
BLOCKS
  0
BLOCK
  5
20
330
1F
100
AcDbEntity
  8
0
100
AcDbBlockBegin
  2
*Model_Space
 70
     0
 10
0.0
 20
0.0
 30
0.0
  3
*Model_Space
  1

  0
ENDBLK
  5
21
330
1F
100
AcDbEntity
  8
0
100
AcDbBlockEnd
  0
BLOCK
  5
1C
330
1B
100
AcDbEntity
 67
     1
  8
0
100
AcDbBlockBegin
  2
*Paper_Space
 70
     0
 10
0.0
 20
0.0
 30
0.0
  3
*Paper_Space
  1

  0
ENDBLK
  5
1D
330
1B
100
AcDbEntity
 67
     1
  8
0
100
AcDbBlockEnd
  0
BLOCK
  5
24
330
23
100
AcDbEntity
  8
0
100
AcDbBlockBegin
  2
*Paper_Space0
 70
     0
 10
0.0
 20
0.0
 30
0.0
  3
*Paper_Space0
  1

  0
ENDBLK
  5
25
330
23
100
AcDbEntity
  8
0
100
AcDbBlockEnd
  0
BLOCK
  5
A6
330
A5
100
AcDbEntity
  8
0
100
AcDbBlockBegin
  2
SW_CENTERMARKSYMBOL_0
 70
     0
 10
0.0
 20
0.0
 30
0.0
  3
SW_CENTERMARKSYMBOL_0
  1

  0
LINE
  5
A8
330
A5
100
AcDbEntity
  8
FORMAT
 62
     0
100
AcDbLine
 10
0.0
 20
0.0
 30
0.0
 11
0.0
 21
2.5
 31
0.0
  0
LINE
  5
A9
330
A5
100
AcDbEntity
  8
FORMAT
 62
     0
100
AcDbLine
 10
0.0
 20
0.0
 30
0.0
 11
-2.5
 21
0.0
 31
0.0
  0
LINE
  5
AA
330
A5
100
AcDbEntity
  8
FORMAT
 62
     0
100
AcDbLine
 10
0.0
 20
0.0
 30
0.0
 11
0.0
 21
-2.5
 31
0.0
  0
LINE
  5
AB
330
A5
100
AcDbEntity
  8
FORMAT
 62
     0
100
AcDbLine
 10
0.0
 20
0.0
 30
0.0
 11
2.5
 21
0.0
 31
0.0
  0
LINE
  5
AC
330
A5
100
AcDbEntity
  8
FORMAT
 62
     0
100
AcDbLine
 10
0.0
 20
5.0
 30
0.0
 11
0.0
 21
20.0
 31
0.0
  0
LINE
  5
AD
330
A5
100
AcDbEntity
  8
FORMAT
 62
     0
100
AcDbLine
 10
-5.0
 20
0.0
 30
0.0
 11
-20.0
 21
0.0
 31
0.0
  0
LINE
  5
AE
330
A5
100
AcDbEntity
  8
FORMAT
 62
     0
100
AcDbLine
 10
0.0
 20
-5.0
 30
0.0
 11
0.0
 21
-20.0
 31
0.0
  0
LINE
  5
AF
330
A5
100
AcDbEntity
  8
FORMAT
 62
     0
100
AcDbLine
 10
5.0
 20
0.0
 30
0.0
 11
20.0
 21
0.0
 31
0.0
  0
ENDBLK
  5
A7
330
A5
100
AcDbEntity
  8
0
100
AcDbBlockEnd
  0
BLOCK
  5
C2
330
C1
100
AcDbEntity
  8
0
100
AcDbBlockBegin
  2
SW_CENTERMARKSYMBOL_1
 70
     0
 10
0.0
 20
0.0
 30
0.0
  3
SW_CENTERMARKSYMBOL_1
  1

  0
LINE
  5
C4
330
C1
100
AcDbEntity
  8
FORMAT
 62
     0
100
AcDbLine
 10
0.0
 20
0.0
 30
0.0
 11
0.0
 21
2.5
 31
0.0
  0
LINE
  5
C5
330
C1
100
AcDbEntity
  8
FORMAT
 62
     0
100
AcDbLine
 10
0.0
 20
0.0
 30
0.0
 11
-2.5
 21
0.0
 31
0.0
  0
LINE
  5
C6
330
C1
100
AcDbEntity
  8
FORMAT
 62
     0
100
AcDbLine
 10
0.0
 20
0.0
 30
0.0
 11
0.0
 21
-2.5
 31
0.0
  0
LINE
  5
C7
330
C1
100
AcDbEntity
  8
FORMAT
 62
     0
100
AcDbLine
 10
0.0
 20
0.0
 30
0.0
 11
2.5
 21
0.0
 31
0.0
  0
LINE
  5
C8
330
C1
100
AcDbEntity
  8
FORMAT
 62
     0
100
AcDbLine
 10
0.0
 20
5.0
 30
0.0
 11
0.0
 21
20.0
 31
0.0
  0
LINE
  5
C9
330
C1
100
AcDbEntity
  8
FORMAT
 62
     0
100
AcDbLine
 10
-5.0
 20
0.0
 30
0.0
 11
-20.0
 21
0.0
 31
0.0
  0
LINE
  5
CA
330
C1
100
AcDbEntity
  8
FORMAT
 62
     0
100
AcDbLine
 10
0.0
 20
-5.0
 30
0.0
 11
0.0
 21
-20.0
 31
0.0
  0
LINE
  5
CB
330
C1
100
AcDbEntity
  8
FORMAT
 62
     0
100
AcDbLine
 10
5.0
 20
0.0
 30
0.0
 11
20.0
 21
0.0
 31
0.0
  0
ENDBLK
  5
C3
330
C1
100
AcDbEntity
  8
0
100
AcDbBlockEnd
  0
BLOCK
  5
DF
330
DE
100
AcDbEntity
  8
0
100
AcDbBlockBegin
  2
SW_CENTERMARKSYMBOL_2
 70
     0
 10
0.0
 20
0.0
 30
0.0
  3
SW_CENTERMARKSYMBOL_2
  1

  0
LINE
  5
E1
330
DE
100
AcDbEntity
  8
FORMAT
 62
     0
100
AcDbLine
 10
0.0
 20
0.0
 30
0.0
 11
0.0
 21
2.5
 31
0.0
  0
LINE
  5
E2
330
DE
100
AcDbEntity
  8
FORMAT
 62
     0
100
AcDbLine
 10
0.0
 20
0.0
 30
0.0
 11
-2.5
 21
0.0
 31
0.0
  0
LINE
  5
E3
330
DE
100
AcDbEntity
  8
FORMAT
 62
     0
100
AcDbLine
 10
0.0
 20
0.0
 30
0.0
 11
0.0
 21
-2.5
 31
0.0
  0
LINE
  5
E4
330
DE
100
AcDbEntity
  8
FORMAT
 62
     0
100
AcDbLine
 10
0.0
 20
0.0
 30
0.0
 11
2.5
 21
0.0
 31
0.0
  0
LINE
  5
E5
330
DE
100
AcDbEntity
  8
FORMAT
 62
     0
100
AcDbLine
 10
0.0
 20
5.0
 30
0.0
 11
0.0
 21
20.0
 31
0.0
  0
LINE
  5
E6
330
DE
100
AcDbEntity
  8
FORMAT
 62
     0
100
AcDbLine
 10
-5.0
 20
0.0
 30
0.0
 11
-20.0
 21
0.0
 31
0.0
  0
LINE
  5
E7
330
DE
100
AcDbEntity
  8
FORMAT
 62
     0
100
AcDbLine
 10
0.0
 20
-5.0
 30
0.0
 11
0.0
 21
-20.0
 31
0.0
  0
LINE
  5
E8
330
DE
100
AcDbEntity
  8
FORMAT
 62
     0
100
AcDbLine
 10
5.0
 20
0.0
 30
0.0
 11
20.0
 21
0.0
 31
0.0
  0
ENDBLK
  5
E0
330
DE
100
AcDbEntity
  8
0
100
AcDbBlockEnd
  0
BLOCK
  5
FA
330
F9
100
AcDbEntity
  8
0
100
AcDbBlockBegin
  2
SW_CENTERMARKSYMBOL_3
 70
     0
 10
0.0
 20
0.0
 30
0.0
  3
SW_CENTERMARKSYMBOL_3
  1

  0
LINE
  5
FC
330
F9
100
AcDbEntity
  8
FORMAT
 62
     0
100
AcDbLine
 10
0.0
 20
0.0
 30
0.0
 11
0.0
 21
2.5
 31
0.0
  0
LINE
  5
FD
330
F9
100
AcDbEntity
  8
FORMAT
 62
     0
100
AcDbLine
 10
0.0
 20
0.0
 30
0.0
 11
-2.5
 21
0.0
 31
0.0
  0
LINE
  5
FE
330
F9
100
AcDbEntity
  8
FORMAT
 62
     0
100
AcDbLine
 10
0.0
 20
0.0
 30
0.0
 11
0.0
 21
-2.5
 31
0.0
  0
LINE
  5
FF
330
F9
100
AcDbEntity
  8
FORMAT
 62
     0
100
AcDbLine
 10
0.0
 20
0.0
 30
0.0
 11
2.5
 21
0.0
 31
0.0
  0
LINE
  5
100
330
F9
100
AcDbEntity
  8
FORMAT
 62
     0
100
AcDbLine
 10
0.0
 20
5.0
 30
0.0
 11
0.0
 21
20.0
 31
0.0
  0
LINE
  5
101
330
F9
100
AcDbEntity
  8
FORMAT
 62
     0
100
AcDbLine
 10
-5.0
 20
0.0
 30
0.0
 11
-20.0
 21
0.0
 31
0.0
  0
LINE
  5
102
330
F9
100
AcDbEntity
  8
FORMAT
 62
     0
100
AcDbLine
 10
0.0
 20
-5.0
 30
0.0
 11
0.0
 21
-20.0
 31
0.0
  0
LINE
  5
103
330
F9
100
AcDbEntity
  8
FORMAT
 62
     0
100
AcDbLine
 10
5.0
 20
0.0
 30
0.0
 11
20.0
 21
0.0
 31
0.0
  0
ENDBLK
  5
FB
330
F9
100
AcDbEntity
  8
0
100
AcDbBlockEnd
  0
ENDSEC
  0
SECTION
  2
ENTITIES
  0
LINE
  5
83
330
1F
100
AcDbEntity
  8
0
  6
Continuous
 62
     7
370
    25
100
AcDbLine
 10
90.5843308469
 20
113.11211876
 30
0.0
 11
90.5843308469
 21
83.11211876
 31
0.0
  0
LINE
  5
84
330
1F
100
AcDbEntity
  8
0
  6
Continuous
 62
     7
370
    25
100
AcDbLine
 10
125.5843308469
 20
83.11211876
 30
0.0
 11
125.5843308469
 21
113.11211876
 31
0.0
  0
ARC
  5
85
330
1F
100
AcDbEntity
  8
0
  6
Continuous
 62
     7
370
    25
100
AcDbCircle
 10
138.0843308469
 20
113.11211876
 30
0.0
 40
12.50000000000001
100
AcDbArc
 50
90.0
 51
180.0
  0
ARC
  5
86
330
1F
100
AcDbEntity
  8
0
  6
Continuous
 62
     7
370
    25
100
AcDbCircle
 10
138.0843308469
 20
113.11211876
 30
0.0
 40
47.50000000000001
100
AcDbArc
 50
90.0
 51
180.0
  0
LINE
  5
87
330
1F
100
AcDbEntity
  8
0
  6
Continuous
 62
     7
370
    25
100
AcDbLine
 10
168.0843308469
 20
160.61211876
 30
0.0
 11
138.0843308469
 21
160.61211876
 31
0.0
  0
LINE
  5
88
330
1F
100
AcDbEntity
  8
0
  6
Continuous
 62
     7
370
    25
100
AcDbLine
 10
138.0843308469
 20
125.61211876
 30
0.0
 11
168.0843308469
 21
125.61211876
 31
0.0
  0
CIRCLE
  5
89
330
1F
100
AcDbEntity
  8
0
  6
Continuous
 62
     7
370
    25
100
AcDbCircle
 10
108.0843308469
 20
93.11211876
 30
0.0
 40
5.000000000000014
  0
CIRCLE
  5
8A
330
1F
100
AcDbEntity
  8
0
  6
Continuous
 62
     7
370
    25
100
AcDbCircle
 10
108.0843308469
 20
93.11211876
 30
0.0
 40
7.000000000000014
  0
CIRCLE
  5
8B
330
1F
100
AcDbEntity
  8
0
  6
Continuous
 62
     7
370
    25
100
AcDbCircle
 10
158.0843308469
 20
143.11211876
 30
0.0
 40
7.000000000000057
  0
CIRCLE
  5
8C
330
1F
100
AcDbEntity
  8
0
  6
Continuous
 62
     7
370
    25
100
AcDbCircle
 10
158.0843308469
 20
143.11211876
 30
0.0
 40
5.000000000000057
  0
LINE
  5
8D
330
1F
100
AcDbEntity
  8
0
  6
Continuous
 62
     7
370
    25
100
AcDbLine
 10
108.0843308469
 20
83.11211876
 30
0.0
 11
125.5843308469
 21
83.11211876
 31
0.0
  0
LINE
  5
8E
330
1F
100
AcDbEntity
  8
0
  6
Continuous
 62
     7
370
    25
100
AcDbLine
 10
90.5843308469
 20
83.11211876
 30
0.0
 11
108.0843308469
 21
83.11211876
 31
0.0
  0
LINE
  5
8F
330
1F
100
AcDbEntity
  8
0
  6
Continuous
 62
     7
370
    25
100
AcDbLine
 10
168.0843308469
 20
143.11211876
 30
0.0
 11
168.0843308469
 21
125.61211876
 31
0.0
  0
LINE
  5
90
330
1F
100
AcDbEntity
  8
0
  6
Continuous
 62
     7
370
    25
100
AcDbLine
 10
168.0843308469
 20
160.61211876
 30
0.0
 11
168.0843308469
 21
143.11211876
 31
0.0
  0
LINE
  5
91
330
1F
100
AcDbEntity
  8
0
  6
Continuous
 62
     1
370
    25
100
AcDbLine
 10
108.0843308469
 20
113.11211876
 30
0.0
 11
125.5843308469
 21
113.11211876
 31
0.0
  0
LINE
  5
92
330
1F
100
AcDbEntity
  8
0
  6
Continuous
 62
     1
370
    25
100
AcDbLine
 10
90.5843308469
 20
113.11211876
 30
0.0
 11
108.0843308469
 21
113.11211876
 31
0.0
  0
LINE
  5
93
330
1F
100
AcDbEntity
  8
0
  6
Continuous
 62
     1
370
    25
100
AcDbLine
 10
138.0843308469
 20
143.11211876
 30
0.0
 11
138.0843308469
 21
125.61211876
 31
0.0
  0
LINE
  5
94
330
1F
100
AcDbEntity
  8
0
  6
Continuous
 62
     1
370
    25
100
AcDbLine
 10
138.0843308469
 20
160.61211876
 30
0.0
 11
138.0843308469
 21
143.11211876
 31
0.0
  0
LINE
  5
95
330
1F
100
AcDbEntity
  8
0
  6
Continuous
 62
     7
370
    25
100
AcDbLine
 10
-6.6115053145
 20
150.11211876
 30
0.0
 11
-23.0634208978
 21
150.11211876
 31
0.0
  0
LINE
  5
96
330
1F
100
AcDbEntity
  8
0
  6
Continuous
 62
     7
370
    25
100
AcDbLine
 10
-23.0634208978
 20
136.11211876
 30
0.0
 11
-6.6134804512
 21
136.11211876
 31
0.0
  0
LINE
  5
97
330
1F
100
AcDbEntity
  8
0
  6
Continuous
 62
     7
370
    25
100
AcDbLine
 10
-8.0634208978
 20
136.11211876
 30
0.0
 11
-8.0634208978
 21
113.11211876
 31
0.0
  0
LINE
  5
98
330
1F
100
AcDbEntity
  8
0
  6
Continuous
 62
     7
370
    25
100
AcDbLine
 10
26.9365791022
 20
113.11211876
 30
0.0
 11
26.9365791022
 21
143.11211876
 31
0.0
  0
LINE
  5
99
330
1F
100
AcDbEntity
  8
0
  6
Continuous
 62
     7
370
    25
100
AcDbLine
 10
-8.0634208978
 20
86.11211876
 30
0.0
 11
-8.0634208978
 21
83.11211876
 31
0.0
  0
LINE
  5
9A
330
1F
100
AcDbEntity
  8
0
  6
Continuous
 62
     7
370
    25
100
AcDbLine
 10
-8.0634208978
 20
113.11211876
 30
0.0
 11
-8.0634208978
 21
100.1011651615
 31
0.0
  0
LINE
  5
9B
330
1F
100
AcDbEntity
  8
0
  6
Continuous
 62
     7
370
    25
100
AcDbLine
 10
26.9365791022
 20
83.11211876
 30
0.0
 11
26.9365791022
 21
113.11211876
 31
0.0
  0
LINE
  5
9C
330
1F
100
AcDbEntity
  8
0
  6
Continuous
 62
     7
370
    25
100
AcDbLine
 10
-8.0590705766
 20
100.11211876
 30
0.0
 11
-23.0634208978
 21
100.11211876
 31
0.0
  0
LINE
  5
9D
330
1F
100
AcDbEntity
  8
0
  6
Continuous
 62
     7
370
    25
100
AcDbLine
 10
-23.0634208978
 20
86.11211876
 30
0.0
 11
-8.0634208978
 21
86.11211876
 31
0.0
  0
CIRCLE
  5
9E
330
1F
100
AcDbEntity
  8
0
  6
Continuous
 62
     7
370
    25
100
AcDbCircle
 10
9.4365791022
 20
143.11211876
 30
0.0
 40
17.5
  0
CIRCLE
  5
9F
330
1F
100
AcDbEntity
  8
0
  6
Continuous
 62
     7
370
    25
100
AcDbCircle
 10
9.4365791022
 20
143.11211876
 30
0.0
 40
12.5
  0
LINE
  5
A0
330
1F
100
AcDbEntity
  8
0
  6
Continuous
 62
     7
370
    25
100
AcDbLine
 10
-23.0634208978
 20
150.11211876
 30
0.0
 11
-23.0634208978
 21
136.11211876
 31
0.0
  0
SPLINE
  5
A1
330
1F
100
AcDbEntity
  8
0
  6
Continuous
 62
     7
370
    25
100
AcDbSpline
210
0.0
220
0.0
230
1.0
 70
     8
 71
     3
 72
    27
 73
    23
 74
     0
 42
0.00000001
 43
0.00000001
 40
0.0
 40
0.0
 40
0.0
 40
0.0
 40
0.0501324802018505
 40
0.1017857593181341
 40
0.1519011939064846
 40
0.2033603817703246
 40
0.2556380432840621
 40
0.3093035109738428
 40
0.3637722077689695
 40
0.419962020523778
 40
0.4718867012160198
 40
0.5255507022499326
 40
0.5739845512901799
 40
0.6237756089572434
 40
0.6732836470683716
 40
0.7240327302172712
 40
0.7773118795768017
 40
0.8320708783819638
 40
0.8862650438364185
 40
0.942226268625735
 40
0.993211974948376
 40
1.0
 40
1.0
 40
1.0
 40
1.0
 10
-8.063420897820286
 20
86.11211876003202
 30
0.0
 10
-8.056519670148854
 20
86.12928189714464
 30
0.0
 10
-8.042507861917228
 20
86.1641288254485
 30
0.0
 10
-7.932576271193875
 20
86.44323570320856
 30
0.0
 10
-7.768109176967962
 20
86.88105035006684
 30
0.0
 10
-7.558690301207661
 20
87.47964984697832
 30
0.0
 10
-7.320876433312867
 20
88.23647050960618
 30
0.0
 10
-7.077686324816904
 20
89.14110956739626
 30
0.0
 10
-6.855028501528916
 20
90.18607089337716
 30
0.0
 10
-6.688965143947551
 20
91.31510922506145
 30
0.0
 10
-6.599879846143521
 20
92.497572390672
 30
0.0
 10
-6.597846674464164
 20
93.6442643524059
 30
0.0
 10
-6.675003859845497
 20
94.75668291061461
 30
0.0
 10
-6.814728738253116
 20
95.79298098242259
 30
0.0
 10
-7.006371171312702
 20
96.77259706556292
 30
0.0
 10
-7.23298372359228
 20
97.67886974112412
 30
0.0
 10
-7.476355177121337
 20
98.49444088360275
 30
0.0
 10
-7.707759928006841
 20
99.17718089274427
 30
0.0
 10
-7.902672255903956
 20
99.7036678328079
 30
0.0
 10
-8.021771829242535
 20
100.00823554791
 30
0.0
 10
-8.072496057334533
 20
100.1349006723171
 30
0.0
 10
-8.060469523742379
 20
100.104712114116
 30
0.0
 10
-8.05905648689387
 20
100.1011651614704
 30
0.0
  0
LINE
  5
A2
330
1F
100
AcDbEntity
  8
0
  6
Continuous
 62
     7
370
    25
100
AcDbLine
 10
-8.0634208978
 20
83.11211876
 30
0.0
 11
26.9365791022
 21
83.11211876
 31
0.0
  0
LINE
  5
A3
330
1F
100
AcDbEntity
  8
0
  6
Continuous
 62
     7
370
    25
100
AcDbLine
 10
-23.0634208978
 20
100.11211876
 30
0.0
 11
-23.0634208978
 21
86.11211876
 31
0.0
  0
LINE
  5
A4
330
1F
100
AcDbEntity
  8
0
  6
Continuous
 62
     1
370
    25
100
AcDbLine
 10
-8.0634208978
 20
113.11211876
 30
0.0
 11
26.9365791022
 21
113.11211876
 31
0.0
  0
INSERT
  5
B0
330
1F
100
AcDbEntity
  8
FORMAT
 62
     7
100
AcDbBlockReference
  2
SW_CENTERMARKSYMBOL_0
 10
9.4365791022
 20
143.11211876
 30
0.0
  0
LINE
  5
B1
330
1F
100
AcDbEntity
  8
0
  6
Continuous
 62
     7
370
    25
100
AcDbLine
 10
115.0843308469
 20
236.7938141133
 30
0.0
 11
115.0843308469
 21
253.2437545599
 31
0.0
  0
LINE
  5
B2
330
1F
100
AcDbEntity
  8
0
  6
Continuous
 62
     7
370
    25
100
AcDbLine
 10
101.0843308469
 20
253.2437545599
 30
0.0
 11
101.0843308469
 21
236.7918389765
 31
0.0
  0
LINE
  5
B3
330
1F
100
AcDbEntity
  8
0
  6
Continuous
 62
     7
370
    25
100
AcDbLine
 10
138.0843308469
 20
238.2437545599
 30
0.0
 11
115.0843308469
 21
238.2437545599
 31
0.0
  0
LINE
  5
B4
330
1F
100
AcDbEntity
  8
0
  6
Continuous
 62
     7
370
    25
100
AcDbLine
 10
108.0843308469
 20
203.2437545599
 30
0.0
 11
138.0843308469
 21
203.2437545599
 31
0.0
  0
LINE
  5
B5
330
1F
100
AcDbEntity
  8
0
  6
Continuous
 62
     7
370
    25
100
AcDbLine
 10
151.0843308469
 20
238.2437545599
 30
0.0
 11
138.0843308469
 21
238.2437545599
 31
0.0
  0
LINE
  5
B6
330
1F
100
AcDbEntity
  8
0
  6
Continuous
 62
     7
370
    25
100
AcDbLine
 10
168.0843308469
 20
238.2437545599
 30
0.0
 11
165.0733772483
 21
238.2437545599
 31
0.0
  0
LINE
  5
B7
330
1F
100
AcDbEntity
  8
0
  6
Continuous
 62
     7
370
    25
100
AcDbLine
 10
138.0843308469
 20
203.2437545599
 30
0.0
 11
168.0843308469
 21
203.2437545599
 31
0.0
  0
LINE
  5
B8
330
1F
100
AcDbEntity
  8
0
  6
Continuous
 62
     7
370
    25
100
AcDbLine
 10
165.0843308469
 20
238.2394042386
 30
0.0
 11
165.0843308469
 21
253.2437545599
 31
0.0
  0
LINE
  5
B9
330
1F
100
AcDbEntity
  8
0
  6
Continuous
 62
     7
370
    25
100
AcDbLine
 10
151.0843308469
 20
253.2437545599
 30
0.0
 11
151.0843308469
 21
238.2437545599
 31
0.0
  0
CIRCLE
  5
BA
330
1F
100
AcDbEntity
  8
0
  6
Continuous
 62
     7
370
    25
100
AcDbCircle
 10
108.0843308469
 20
220.7437545599
 30
0.0
 40
12.5
  0
CIRCLE
  5
BB
330
1F
100
AcDbEntity
  8
0
  6
Continuous
 62
     7
370
    25
100
AcDbCircle
 10
108.0843308469
 20
220.7437545599
 30
0.0
 40
17.5
  0
LINE
  5
BC
330
1F
100
AcDbEntity
  8
0
  6
Continuous
 62
     7
370
    25
100
AcDbLine
 10
115.0843308469
 20
253.2437545599
 30
0.0
 11
101.0843308469
 21
253.2437545599
 31
0.0
  0
SPLINE
  5
BD
330
1F
100
AcDbEntity
  8
0
  6
Continuous
 62
     7
370
    25
100
AcDbSpline
210
0.0
220
0.0
230
1.0
 70
     8
 71
     3
 72
    27
 73
    23
 74
     0
 42
0.00000001
 43
0.00000001
 40
0.0
 40
0.0
 40
0.0
 40
0.0
 40
0.0501324802018505
 40
0.1017857593181341
 40
0.1519011939064842
 40
0.2033603817703243
 40
0.2556380432840618
 40
0.3093035109738428
 40
0.3637722077689688
 40
0.4199620205237775
 40
0.4718867012160189
 40
0.5255507022499321
 40
0.5739845512901796
 40
0.6237756089572432
 40
0.6732836470683712
 40
0.7240327302172704
 40
0.7773118795768011
 40
0.832070878381963
 40
0.8862650438364178
 40
0.9422262686257343
 40
0.9932119749483754
 40
1.0
 40
1.0
 40
1.0
 40
1.0
 10
151.0843308469048
 20
238.243754559868
 30
0.0
 10
151.1014939840174
 20
238.2368533321965
 30
0.0
 10
151.1363409123213
 20
238.2228415239649
 30
0.0
 10
151.4154477900813
 20
238.1129099332416
 30
0.0
 10
151.8532624369396
 20
237.9484428390157
 30
0.0
 10
152.451861933851
 20
237.7390239632553
 30
0.0
 10
153.208682596479
 20
237.5012100953605
 30
0.0
 10
154.113321654269
 20
237.2580199868646
 30
0.0
 10
155.1582829802499
 20
237.0353621635766
 30
0.0
 10
156.2873213119342
 20
236.8692988059952
 30
0.0
 10
157.4697844775447
 20
236.7802135081912
 30
0.0
 10
158.6164764392787
 20
236.7781803365118
 30
0.0
 10
159.7288949974874
 20
236.8553375218932
 30
0.0
 10
160.7651930692954
 20
236.9950624003008
 30
0.0
 10
161.7448091524357
 20
237.1867048333604
 30
0.0
 10
162.6510818279969
 20
237.4133173856399
 30
0.0
 10
163.4666529704755
 20
237.656688839169
 30
0.0
 10
164.1493929796171
 20
237.8880935900545
 30
0.0
 10
164.6758799196807
 20
238.0830059179516
 30
0.0
 10
164.9804476347828
 20
238.2021054912902
 30
0.0
 10
165.1071127591898
 20
238.2528297193822
 30
0.0
 10
165.0769242009888
 20
238.24080318579
 30
0.0
 10
165.0733772483432
 20
238.2393901489415
 30
0.0
  0
LINE
  5
BE
330
1F
100
AcDbEntity
  8
0
  6
Continuous
 62
     7
370
    25
100
AcDbLine
 10
168.0843308469
 20
238.2437545599
 30
0.0
 11
168.0843308469
 21
203.2437545599
 31
0.0
  0
LINE
  5
BF
330
1F
100
AcDbEntity
  8
0
  6
Continuous
 62
     7
370
    25
100
AcDbLine
 10
165.0843308469
 20
253.2437545599
 30
0.0
 11
151.0843308469
 21
253.2437545599
 31
0.0
  0
LINE
  5
C0
330
1F
100
AcDbEntity
  8
0
  6
Continuous
 62
     1
370
    25
100
AcDbLine
 10
138.0843308469
 20
238.2437545599
 30
0.0
 11
138.0843308469
 21
203.2437545599
 31
0.0
  0
INSERT
  5
CC
330
1F
100
AcDbEntity
  8
FORMAT
 62
     7
100
AcDbBlockReference
  2
SW_CENTERMARKSYMBOL_1
 10
108.0843308469
 20
220.7437545599
 30
0.0
  0
LINE
  5
CD
330
1F
100
AcDbEntity
  8
0
  6
Continuous
 62
     7
370
    25
100
AcDbLine
 10
214.6371584377
 20
113.11211876
 30
0.0
 11
214.6371584377
 21
83.11211876
 31
0.0
  0
LINE
  5
CE
330
1F
100
AcDbEntity
  8
0
  6
Continuous
 62
     7
370
    25
100
AcDbLine
 10
249.6371584377
 20
100.1011651615
 30
0.0
 11
249.6371584377
 21
113.11211876
 31
0.0
  0
LINE
  5
CF
330
1F
100
AcDbEntity
  8
0
  6
Continuous
 62
     7
370
    25
100
AcDbLine
 10
249.6371584377
 20
83.11211876
 30
0.0
 11
249.6371584377
 21
86.11211876
 31
0.0
  0
LINE
  5
D0
330
1F
100
AcDbEntity
  8
0
  6
Continuous
 62
     7
370
    25
100
AcDbLine
 10
249.6371584377
 20
113.11211876
 30
0.0
 11
249.6371584377
 21
143.11211876
 31
0.0
  0
LINE
  5
D1
330
1F
100
AcDbEntity
  8
0
  6
Continuous
 62
     7
370
    25
100
AcDbLine
 10
214.6371584377
 20
143.11211876
 30
0.0
 11
214.6371584377
 21
113.11211876
 31
0.0
  0
LINE
  5
D2
330
1F
100
AcDbEntity
  8
0
  6
Continuous
 62
     7
370
    25
100
AcDbLine
 10
249.6371584377
 20
86.11211876
 30
0.0
 11
264.6371584377
 21
86.11211876
 31
0.0
  0
LINE
  5
D3
330
1F
100
AcDbEntity
  8
0
  6
Continuous
 62
     7
370
    25
100
AcDbLine
 10
264.6371584377
 20
100.11211876
 30
0.0
 11
249.6328081164
 21
100.11211876
 31
0.0
  0
LINE
  5
D4
330
1F
100
AcDbEntity
  8
0
  6
Continuous
 62
     7
370
    25
100
AcDbLine
 10
249.6371584377
 20
136.11211876
 30
0.0
 11
264.6371584377
 21
136.11211876
 31
0.0
  0
LINE
  5
D5
330
1F
100
AcDbEntity
  8
0
  6
Continuous
 62
     7
370
    25
100
AcDbLine
 10
264.6371584377
 20
150.11211876
 30
0.0
 11
248.1852428543
 21
150.11211876
 31
0.0
  0
LINE
  5
D6
330
1F
100
AcDbEntity
  8
0
  6
Continuous
 62
     7
370
    25
100
AcDbLine
 10
214.6371584377
 20
83.11211876
 30
0.0
 11
249.6371584377
 21
83.11211876
 31
0.0
  0
ARC
  5
D7
330
1F
100
AcDbEntity
  8
0
  6
Continuous
 62
     7
370
    25
100
AcDbCircle
 10
266.3043565132
 20
93.111842603
 30
0.0
 40
18.07737883557962
100
AcDbArc
 50
157.2548046255
 51
202.7809465345
  0
ARC
  5
D8
330
1F
100
AcDbEntity
  8
0
  6
Continuous
 62
     7
370
    25
100
AcDbCircle
 10
232.1371584377
 20
143.11211876
 30
0.0
 40
17.5
100
AcDbArc
 50
0.0
 51
180.0
  0
LINE
  5
D9
330
1F
100
AcDbEntity
  8
0
  6
Continuous
 62
     7
370
    25
100
AcDbLine
 10
264.6371584377
 20
93.11211876
 30
0.0
 11
264.6371584377
 21
100.11211876
 31
0.0
  0
LINE
  5
DA
330
1F
100
AcDbEntity
  8
0
  6
Continuous
 62
     7
370
    25
100
AcDbLine
 10
264.6371584377
 20
86.11211876
 30
0.0
 11
264.6371584377
 21
93.11211876
 31
0.0
  0
LINE
  5
DB
330
1F
100
AcDbEntity
  8
0
  6
Continuous
 62
     7
370
    25
100
AcDbLine
 10
264.6371584377
 20
143.11211876
 30
0.0
 11
264.6371584377
 21
150.11211876
 31
0.0
  0
LINE
  5
DC
330
1F
100
AcDbEntity
  8
0
  6
Continuous
 62
     7
370
    25
100
AcDbLine
 10
264.6371584377
 20
136.11211876
 30
0.0
 11
264.6371584377
 21
143.11211876
 31
0.0
  0
LINE
  5
DD
330
1F
100
AcDbEntity
  8
0
  6
Continuous
 62
     1
370
    25
100
AcDbLine
 10
214.6371584377
 20
113.11211876
 30
0.0
 11
249.6371584377
 21
113.11211876
 31
0.0
  0
INSERT
  5
E9
330
1F
100
AcDbEntity
  8
FORMAT
 62
     7
100
AcDbBlockReference
  2
SW_CENTERMARKSYMBOL_2
 10
232.1371584377
 20
143.11211876
 30
0.0
  0
LINE
  5
EA
330
1F
100
AcDbEntity
  8
0
  6
Continuous
 62
     7
370
    25
100
AcDbLine
 10
108.0843308469
 20
3.8528819958
 30
0.0
 11
138.0843308469
 21
3.8528819958
 31
0.0
  0
LINE
  5
EB
330
1F
100
AcDbEntity
  8
0
  6
Continuous
 62
     7
370
    25
100
AcDbLine
 10
138.0843308469
 20
38.8528819958
 30
0.0
 11
108.0843308469
 21
38.8528819958
 31
0.0
  0
LINE
  5
EC
330
1F
100
AcDbEntity
  8
0
  6
Continuous
 62
     7
370
    25
100
AcDbLine
 10
168.0843308469
 20
38.8528819958
 30
0.0
 11
138.0843308469
 21
38.8528819958
 31
0.0
  0
LINE
  5
ED
330
1F
100
AcDbEntity
  8
0
  6
Continuous
 62
     7
370
    25
100
AcDbLine
 10
165.0733772483
 20
3.8528819958
 30
0.0
 11
168.0843308469
 21
3.8528819958
 31
0.0
  0
LINE
  5
EE
330
1F
100
AcDbEntity
  8
0
  6
Continuous
 62
     7
370
    25
100
AcDbLine
 10
138.0843308469
 20
3.8528819958
 30
0.0
 11
151.0843308469
 21
3.8528819958
 31
0.0
  0
LINE
  5
EF
330
1F
100
AcDbEntity
  8
0
  6
Continuous
 62
     7
370
    25
100
AcDbLine
 10
151.0843308469
 20
3.8528819958
 30
0.0
 11
151.0843308469
 21
-11.1471180042
 31
0.0
  0
LINE
  5
F0
330
1F
100
AcDbEntity
  8
0
  6
Continuous
 62
     7
370
    25
100
AcDbLine
 10
165.0843308469
 20
-11.1471180042
 30
0.0
 11
165.0843308469
 21
3.857232317
 31
0.0
  0
LINE
  5
F1
330
1F
100
AcDbEntity
  8
0
  6
Continuous
 62
     7
370
    25
100
AcDbLine
 10
101.0843308469
 20
5.3047975791
 30
0.0
 11
101.0843308469
 21
-11.1471180042
 31
0.0
  0
LINE
  5
F2
330
1F
100
AcDbEntity
  8
0
  6
Continuous
 62
     7
370
    25
100
AcDbLine
 10
115.0843308469
 20
-11.1471180042
 30
0.0
 11
115.0843308469
 21
3.8528819958
 31
0.0
  0
ARC
  5
F3
330
1F
100
AcDbEntity
  8
0
  6
Continuous
 62
     7
370
    25
100
AcDbCircle
 10
108.0843308469
 20
21.3528819958
 30
0.0
 40
17.5
100
AcDbArc
 50
90.0
 51
270.0
  0
ARC
  5
F4
330
1F
100
AcDbEntity
  8
0
  6
Continuous
 62
     7
370
    25
100
AcDbCircle
 10
158.0840546899
 20
-12.8143160797
 30
0.0
 40
18.07737883557939
100
AcDbArc
 50
67.2548046255
 51
112.7809465345
  0
LINE
  5
F5
330
1F
100
AcDbEntity
  8
0
  6
Continuous
 62
     7
370
    25
100
AcDbLine
 10
168.0843308469
 20
38.8528819958
 30
0.0
 11
168.0843308469
 21
3.8528819958
 31
0.0
  0
LINE
  5
F6
330
1F
100
AcDbEntity
  8
0
  6
Continuous
 62
     7
370
    25
100
AcDbLine
 10
151.0843308469
 20
-11.1471180042
 30
0.0
 11
165.0843308469
 21
-11.1471180042
 31
0.0
  0
LINE
  5
F7
330
1F
100
AcDbEntity
  8
0
  6
Continuous
 62
     7
370
    25
100
AcDbLine
 10
101.0843308469
 20
-11.1471180042
 30
0.0
 11
115.0843308469
 21
-11.1471180042
 31
0.0
  0
LINE
  5
F8
330
1F
100
AcDbEntity
  8
0
  6
Continuous
 62
     1
370
    25
100
AcDbLine
 10
138.0843308469
 20
38.8528819958
 30
0.0
 11
138.0843308469
 21
3.8528819958
 31
0.0
  0
INSERT
  5
104
330
1F
100
AcDbEntity
  8
FORMAT
 62
     7
100
AcDbBlockReference
  2
SW_CENTERMARKSYMBOL_3
 10
108.0843308469
 20
21.3528819958
 30
0.0
  0
LINE
  5
105
330
1F
100
AcDbEntity
  8
0
  6
Continuous
 62
     7
370
    25
100
AcDbLine
 10
248.3142433399
 20
60.2934562747
 30
0.0
 11
237.202373963
 21
66.7082019243
 31
0.0
  0
LINE
  5
106
330
1F
100
AcDbEntity
  8
0
  6
Continuous
 62
     7
370
    25
100
AcDbLine
 10
230.2029428345
 20
54.583517851
 30
0.0
 11
241.3152816207
 21
48.1685012172
 31
0.0
  0
LINE
  5
107
330
1F
100
AcDbEntity
  8
0
  6
Continuous
 62
     7
370
    25
100
AcDbLine
 10
212.9591679636
 20
-0.9439393361
 30
0.0
 11
201.8470349037
 21
5.4709585344
 31
0.0
  0
LINE
  5
108
330
1F
100
AcDbEntity
  8
0
  6
Continuous
 62
     7
370
    25
100
AcDbLine
 10
194.8476037752
 20
-6.6537255389
 30
0.0
 11
205.9594522663
 21
-13.0684591314
 31
0.0
  0
LINE
  5
109
330
1F
100
AcDbEntity
  8
0
  6
Continuous
 62
     7
370
    25
100
AcDbLine
 10
255.0054076886
 20
66.6171237213
 30
0.0
 11
246.1827754107
 21
61.523926519
 31
0.0
  0
LINE
  5
10A
330
1F
100
AcDbEntity
  8
0
  6
Continuous
 62
     7
370
    25
100
AcDbLine
 10
251.2907820742
 20
24.0592918606
 30
0.0
 11
272.5039855098
 21
36.305413538
 31
0.0
  0
LINE
  5
10B
330
1F
100
AcDbEntity
  8
0
  6
Continuous
 62
     7
370
    25
100
AcDbLine
 10
203.828289728
 20
-11.8381651855
 30
0.0
 11
203.828289728
 21
-22.0234234382
 31
0.0
  0
LINE
  5
10C
330
1F
100
AcDbEntity
  8
0
  6
Continuous
 62
     7
370
    25
100
AcDbLine
 10
238.828289728
 20
-22.0234234382
 30
0.0
 11
238.828289728
 21
2.4728009184
 31
0.0
  0
SPLINE
  5
10D
330
1F
100
AcDbEntity
  8
0
  6
Continuous
 62
     7
370
    25
100
AcDbSpline
210
0.0
220
0.0
230
1.0
 70
     8
 71
     3
 72
    39
 73
    35
 74
     0
 42
0.00000001
 43
0.00000001
 40
0.0
 40
0.0
 40
0.0
 40
0.0
 40
0.0166194928233568
 40
0.0465686011358203
 40
0.0766943980406011
 40
0.1071262133980047
 40
0.1378971749979699
 40
0.1690251977043925
 40
0.2005147130523392
 40
0.2323587940719392
 40
0.264541131698752
 40
0.2970378253661738
 40
0.3298189617978378
 40
0.3628499725199283
 40
0.3960927757324179
 40
0.4295067202928783
 40
0.4630493582596076
 40
0.4966770780754471
 40
0.5303456337795376
 40
0.5640046280114744
 40
0.5976010922141608
 40
0.6310918068923899
 40
0.6644349700712505
 40
0.6975907973530113
 40
0.7305222635210619
 40
0.7631960170783089
 40
0.7955834996671869
 40
0.8276622946608745
 40
0.8594177169764177
 40
0.8908446385329621
 40
0.921949520884296
 40
0.9527526001438582
 40
0.9832901433411514
 40
1.0
 40
1.0
 40
1.0
 40
1.0
 10
238.8282897280099
 20
2.472800918370231
 30
0.0
 10
238.828843575459
 20
2.556113996671359
 30
0.0
 10
238.8303954820798
 20
2.78956116344348
 30
0.0
 10
238.8487582793566
 20
3.222490136284256
 30
0.0
 10
238.8936195813683
 20
3.785933843673102
 30
0.0
 10
238.9665669535009
 20
4.406574331794088
 30
0.0
 10
239.0704688016201
 20
5.080055109292083
 30
0.0
 10
239.2080724843318
 20
5.8025153915695
 30
0.0
 10
239.3814983079455
 20
6.569241416001914
 30
0.0
 10
239.5923623926539
 20
7.375216678216997
 30
0.0
 10
239.841726567021
 20
8.215041166918631
 30
0.0
 10
240.1301052714084
 20
9.083033996363323
 30
0.0
 10
240.4574663159152
 20
9.973291150887825
 30
0.0
 10
240.8232414522192
 20
10.87975623456431
 30
0.0
 10
241.226340737195
 20
11.79628542629087
 30
0.0
 10
241.6651705874717
 20
12.7167099664075
 30
0.0
 10
242.1376540025822
 20
13.63489454890233
 30
0.0
 10
242.6412521501205
 20
14.54479215262013
 30
0.0
 10
243.1729552723934
 20
15.44044285807723
 30
0.0
 10
243.7292818934253
 20
16.31600536836583
 30
0.0
 10
244.3063463065213
 20
17.16589710219633
 30
0.0
 10
244.8999284995347
 20
17.98489813622588
 30
0.0
 10
245.5055307793549
 20
18.76821635861675
 30
0.0
 10
246.1183607077822
 20
19.51146012601738
 30
0.0
 10
246.7333668252456
 20
20.21068932892906
 30
0.0
 10
247.3452786964478
 20
20.86246722578037
 30
0.0
 10
247.9486555174502
 20
21.46391570190309
 30
0.0
 10
248.5379314150191
 20
22.01275993950948
 30
0.0
 10
249.1075029947642
 20
22.50740711712666
 30
0.0
 10
249.6516901293444
 20
22.94688502835233
 30
0.0
 10
250.1651850145819
 20
23.33126798488064
 30
0.0
 10
250.64171645314
 20
23.66026972080874
 30
0.0
 10
251.0142766425535
 20
23.89719291013543
 30
0.0
 10
251.2185406057366
 20
24.01694091602558
 30
0.0
 10
251.2907820741718
 20
24.05929186062146
 30
0.0
  0
SPLINE
  5
10E
330
1F
100
AcDbEntity
  8
0
  6
Continuous
 62
     7
370
    25
100
AcDbSpline
210
0.0
220
0.0
230
1.0
 70
     8
 71
     3
 72
    40
 73
    36
 74
     0
 42
0.00000001
 43
0.00000001
 40
0.0
 40
0.0
 40
0.0
 40
0.0
 40
0.0173557532074891
 40
0.0490121181026221
 40
0.0807302361627098
 40
0.1124584539519893
 40
0.1441615242327893
 40
0.1758157383295143
 40
0.2074050515308997
 40
0.2389202154339251
 40
0.2703577203594002
 40
0.3017187253277644
 40
0.3330080762699644
 40
0.3642334609749185
 40
0.3954047135090075
 40
0.4265332594917797
 40
0.4576316827143731
 40
0.4887133892820649
 40
0.5197923447526323
 40
0.5508822079562994
 40
0.5819933064318632
 40
0.6131401428836853
 40
0.6443370623440753
 40
0.6755980290105701
 40
0.7069363476567924
 40
0.7383643026384891
 40
0.769892686101812
 40
0.8015301862746139
 40
0.8332826094755125
 40
0.8651519190325867
 40
0.8971350952750557
 40
0.9292228585243335
 40
0.9613983558203589
 40
0.9936359910453726
 40
1.0
 40
1.0
 40
1.0
 40
1.0
 10
232.2259785520885
 20
53.41564419011844
 30
0.0
 10
231.9521064402506
 20
53.24435931435184
 30
0.0
 10
231.1786999432844
 20
52.76065604547601
 30
0.0
 10
229.9320820173576
 20
51.89647571810529
 30
0.0
 10
228.4850165415501
 20
50.83058687653109
 30
0.0
 10
227.065346181609
 20
49.70401275314495
 30
0.0
 10
225.674250350091
 20
48.52384653521538
 30
0.0
 10
224.3142746315098
 20
47.29215917778183
 30
0.0
 10
222.9870849352673
 20
46.01214389761527
 30
0.0
 10
221.6942218709013
 20
44.68649607731805
 30
0.0
 10
220.4369855965646
 20
43.31784519490432
 30
0.0
 10
219.2165369943945
 20
41.90864487323295
 30
0.0
 10
218.0339327627266
 20
40.46121811833635
 30
0.0
 10
216.8901675262817
 20
38.97776594785741
 30
0.0
 10
215.7862033482618
 20
37.46038681036282
 30
0.0
 10
214.7229930473727
 20
35.91109182641299
 30
0.0
 10
213.7014973416716
 20
34.33181869145481
 30
0.0
 10
212.7226976683989
 20
32.72444314301939
 30
0.0
 10
211.7876124674752
 20
31.09079993703986
 30
0.0
 10
210.8973365804734
 20
29.43275386177717
 30
0.0
 10
210.0529986316983
 20
27.752136504469
 30
0.0
 10
209.2557610948541
 20
26.0507385400415
 30
0.0
 10
208.5068028695126
 20
24.33024982562679
 30
0.0
 10
207.8073661773389
 20
22.59234286973719
 30
0.0
 10
207.1587647926668
 20
20.83868597121909
 30
0.0
 10
206.5623911605294
 20
19.07096082723224
 30
0.0
 10
206.0197283334749
 20
17.2908872448475
 30
0.0
 10
205.5323411666008
 20
15.50025288198915
 30
0.0
 10
205.1019367852508
 20
13.70096344182573
 30
0.0
 10
204.7301476435108
 20
11.89506174737775
 30
0.0
 10
204.4193254300755
 20
10.08491192559884
 30
0.0
 10
204.1694967209423
 20
8.272808304641229
 30
0.0
 10
203.9896455106476
 20
6.462769823016807
 30
0.0
 10
203.8912476045576
 20
5.138687140529733
 30
0.0
 10
203.8724588840628
 20
4.421699560282519
 30
0.0
 10
203.8693613065369
 20
4.303494352239687
 30
0.0
  0
LWPOLYLINE
  5
10F
330
1F
100
AcDbEntity
  8
0
  6
Continuous
 62
     7
370
    25
100
AcDbPolyline
 90
       58
 70
   128
 43
0.0
 10
228.7529109305
 20
57.7884314962
 10
228.782952545
 20
58.4345575658
 10
228.8727127243
 20
59.10752585
 10
229.0211019012
 20
59.7991674256
 10
229.2263188322
 20
60.5010867006
 10
229.4858724617
 20
61.2047633261
 10
229.7966121603
 20
61.9016556209
 10
230.1547659689
 20
62.5833042567
 10
230.5559863855
 20
63.2414349424
 10
230.9954031378
 20
63.8680588629
 10
231.4676823016
 20
64.4555696528
 10
231.9670910477
 20
64.9968357269
 10
232.4875672303
 20
65.4852868483
 10
233.0227929737
 20
65.9149938821
 10
233.5662713624
 20
66.280740767
 10
234.111405305
 20
66.5780878312
 10
234.6515776138
 20
66.8034256841
 10
235.1802313288
 20
66.9540190296
 10
235.69094931
 20
67.0280398683
 10
236.1775321329
 20
67.0245896876
 10
236.6340733413
 20
66.9437103679
 10
237.0550311433
 20
66.7863836748
 10
237.4352956814
 20
66.554519341
 10
237.7702510592
 20
66.2509318855
 10
238.0558313723
 20
65.8793064489
 10
238.2885700624
 20
65.4441540604
 10
238.4656419971
 20
64.9507568805
 10
238.5848977631
 20
64.4051040828
 10
238.6448897569
 20
63.8138191529
 10
238.6448897569
 20
63.184079489
 10
238.5848977631
 20
62.5235292775
 10
238.4656419971
 20
61.8401867031
 10
238.2885700624
 20
61.1423466191
 10
238.0558313723
 20
60.4384798587
 10
237.7702510592
 20
59.737130411
 10
237.4352956814
 20
59.0468117081
 10
237.0550311433
 20
58.3759032839
 10
236.6340733413
 20
57.732549058
 10
236.1775321329
 20
57.1245584791
 10
235.69094931
 20
56.5593117292
 10
235.1802313288
 20
56.0436701381
 10
234.6515776138
 20
55.5838928963
 10
234.111405305
 20
55.1855610767
 10
233.5662713624
 20
54.8535098879
 10
233.0227929737
 20
54.5917699816
 10
232.4875672303
 20
54.4035185257
 10
231.9670910477
 20
54.2910406377
 10
231.4676823016
 20
54.2557016471
 10
230.9954031378
 20
54.2979305211
 10
230.5559863855
 20
54.4172146585
 10
230.1547659689
 20
54.6121061114
 10
229.7966121603
 20
54.8802391617
 10
229.4858724617
 20
55.2183590372
 10
229.2263188322
 20
55.6223614208
 10
229.0211019012
 20
56.0873422707
 10
228.8727127243
 20
56.6076573494
 10
228.782952545
 20
57.1769907366
 10
228.7529109305
 20
57.7884314962
  0
SPLINE
  5
110
330
1F
100
AcDbEntity
  8
0
  6
Continuous
 62
     7
370
    25
100
AcDbSpline
210
0.0
220
0.0
230
1.0
 70
     8
 71
     3
 72
    28
 73
    24
 74
     0
 42
0.00000001
 43
0.00000001
 40
0.0
 40
0.0
 40
0.0
 40
0.0
 40
0.0056868503959092
 40
0.059354210594712
 40
0.1138248282246787
 40
0.1700166225093639
 40
0.2219431343218935
 40
0.2756090278131069
 40
0.3240445848697047
 40
0.3738373984149874
 40
0.4233471824236694
 40
0.4740980552354905
 40
0.5273790834805535
 40
0.5821400133580366
 40
0.6363360899660032
 40
0.6922992882240574
 40
0.7432867925541201
 40
0.7958976441527653
 40
0.8446968079616102
 40
0.8948348982228989
 40
0.9451859706915049
 40
0.9968253514213045
 40
1.0
 40
1.0
 40
1.0
 40
1.0
 10
241.3200456433154
 20
48.17609487381682
 30
0.0
 10
241.3451342989503
 20
48.15825057355188
 30
0.0
 10
241.6069870375349
 20
47.97200787643393
 30
0.0
 10
242.2051112654135
 20
47.76986875430726
 30
0.0
 10
243.0928029114438
 20
47.60815033318312
 30
0.0
 10
244.0109393413341
 20
47.67583894624882
 30
0.0
 10
244.9094633343728
 20
47.95364469679722
 30
0.0
 10
245.7218921474187
 20
48.4173723726405
 30
0.0
 10
246.4538931216051
 20
49.04787716471415
 30
0.0
 10
247.0878785997766
 20
49.80233599358569
 30
0.0
 10
247.6450490210349
 20
50.68615884843449
 30
0.0
 10
248.1256743293593
 20
51.68332199374056
 30
0.0
 10
248.5301523403621
 20
52.7834055776894
 30
0.0
 10
248.8497883974167
 20
53.94636118512423
 30
0.0
 10
249.0823931886987
 20
55.13077146962865
 30
0.0
 10
249.2204460415514
 20
56.25131320939681
 30
0.0
 10
249.2717879595199
 20
57.28375892974888
 30
0.0
 10
249.2422133224883
 20
58.16765460142272
 30
0.0
 10
249.1353847505154
 20
58.91894712774845
 30
0.0
 10
248.9587455173963
 20
59.52725194881634
 30
0.0
 10
248.6911247626535
 20
59.97956827123628
 30
0.0
 10
248.4761532631398
 20
60.23145086523922
 30
0.0
 10
248.3207392208054
 20
60.28552510529281
 30
0.0
 10
248.3117381498236
 20
60.28865690770719
 30
0.0
  0
LWPOLYLINE
  5
111
330
1F
100
AcDbEntity
  8
0
  6
Continuous
 62
     7
370
    25
100
AcDbPolyline
 90
       49
 70
   128
 43
0.0
 10
230.1671244928
 20
58.6048396081
 10
230.1973714755
 20
59.1552006343
 10
230.2875948893
 20
59.7310672537
 10
230.4362509866
 20
60.3225862287
 10
230.6407962203
 20
60.9196365056
 10
230.8977307648
 20
61.5120023887
 10
231.2026583988
 20
62.0895483334
 10
231.5503617259
 20
62.6423923686
 10
231.9348914458
 20
63.1610751795
 10
232.3496681484
 20
63.6367219593
 10
232.7875948893
 20
64.0611942599
 10
233.2411786206
 20
64.4272292425
 10
233.7026583988
 20
64.7285639471
 10
234.164138177
 20
64.9600424532
 10
234.6177219082
 20
65.1177040995
 10
235.0556486491
 20
65.1988512515
 10
235.4704253517
 20
65.202095459
 10
235.8549550717
 20
65.1273812126
 10
236.2026583988
 20
64.9759868938
 10
236.5075860328
 20
64.7505029015
 10
236.7645205773
 20
64.4547873291
 10
236.969065811
 20
64.0938999521
 10
237.1177219082
 20
63.6740156537
 10
237.207945322
 20
63.2023187706
 10
237.2381923047
 20
62.6868801672
 10
237.207945322
 20
62.1365191409
 10
237.1177219082
 20
61.5606525215
 10
236.969065811
 20
60.9691335466
 10
236.7645205773
 20
60.3720832697
 10
236.5075860328
 20
59.7797173866
 10
236.2026583988
 20
59.2021714418
 10
235.8549550717
 20
58.6493274067
 10
235.4704253517
 20
58.1306445958
 10
235.0556486491
 20
57.6549978159
 10
234.6177219082
 20
57.2305255153
 10
234.164138177
 20
56.8644905327
 10
233.7026583988
 20
56.5631558282
 10
233.2411786206
 20
56.3316773221
 10
232.7875948893
 20
56.1740156757
 10
232.3496681484
 20
56.0928685237
 10
231.9348914458
 20
56.0896243163
 10
231.5503617259
 20
56.1643385626
 10
231.2026583988
 20
56.3157328814
 10
230.8977307648
 20
56.5412168738
 10
230.6407962203
 20
56.8369324462
 10
230.4362509866
 20
57.1978198231
 10
230.2875948893
 20
57.6177041215
 10
230.1973714755
 20
58.0894010047
 10
230.1671244928
 20
58.6048396081
  0
LWPOLYLINE
  5
112
330
1F
100
AcDbEntity
  8
0
  6
Continuous
 62
     7
370
    25
100
AcDbPolyline
 90
       58
 70
   128
 43
0.0
 10
193.3975718711
 20
-3.4488118936
 10
193.4276134857
 20
-2.8026858241
 10
193.517373665
 20
-2.1297175398
 10
193.6657628419
 20
-1.4380759643
 10
193.8709797728
 20
-0.7361566892
 10
194.1305334023
 20
-0.0324800638
 10
194.4412731009
 20
0.6644122311
 10
194.7994269096
 20
1.3460608668
 10
195.2006473262
 20
2.0041915525
 10
195.6400640785
 20
2.6308154731
 10
196.1123432423
 20
3.218326263
 10
196.6117519883
 20
3.7595923371
 10
197.132228171
 20
4.2480434585
 10
197.6674539144
 20
4.6777504923
 10
198.2109323031
 20
5.0434973771
 10
198.7560662456
 20
5.3408444413
 10
199.2962385545
 20
5.5661822943
 10
199.8248922695
 20
5.7167756397
 10
200.3356102507
 20
5.7907964784
 10
200.8221930736
 20
5.7873462977
 10
201.278734282
 20
5.7064669781
 10
201.6996920839
 20
5.5491402849
 10
202.079956622
 20
5.3172759511
 10
202.4149119999
 20
5.0136884957
 10
202.7004923129
 20
4.642063059
 10
202.933231003
 20
4.2069106705
 10
203.1103029378
 20
3.7135134907
 10
203.2295587038
 20
3.1678606929
 10
203.2895506976
 20
2.5765757631
 10
203.2895506976
 20
1.9468360991
 10
203.2295587038
 20
1.2862858876
 10
203.1103029378
 20
0.6029433133
 10
202.933231003
 20
-0.0948967708
 10
202.7004923129
 20
-0.7987635311
 10
202.4149119999
 20
-1.5001129789
 10
202.079956622
 20
-2.1904316818
 10
201.6996920839
 20
-2.8613401059
 10
201.278734282
 20
-3.5046943318
 10
200.8221930736
 20
-4.1126849108
 10
200.3356102507
 20
-4.6779316607
 10
199.8248922695
 20
-5.1935732517
 10
199.2962385545
 20
-5.6533504935
 10
198.7560662456
 20
-6.0516823132
 10
198.2109323031
 20
-6.3837335019
 10
197.6674539144
 20
-6.6454734083
 10
197.132228171
 20
-6.8337248642
 10
196.6117519883
 20
-6.9462027521
 10
196.1123432423
 20
-6.9815417428
 10
195.6400640785
 20
-6.9393128688
 10
195.2006473262
 20
-6.8200287314
 10
194.7994269096
 20
-6.6251372784
 10
194.4412731009
 20
-6.3570042282
 10
194.1305334023
 20
-6.0188843527
 10
193.8709797728
 20
-5.6148819691
 10
193.6657628419
 20
-5.1499011191
 10
193.517373665
 20
-4.6295860405
 10
193.4276134857
 20
-4.0602526532
 10
193.3975718711
 20
-3.4488118936
  0
SPLINE
  5
113
330
1F
100
AcDbEntity
  8
0
  6
Continuous
 62
     7
370
    25
100
AcDbSpline
210
0.0
220
0.0
230
1.0
 70
     8
 71
     3
 72
    22
 73
    18
 74
     0
 42
0.00000001
 43
0.00000001
 40
0.0
 40
0.0
 40
0.0
 40
0.0
 40
0.0668323723363914
 40
0.1356921448510494
 40
0.2025017934206622
 40
0.2711028199327621
 40
0.3407949661241045
 40
0.4123372178501148
 40
0.484950266521015
 40
0.5598577610718803
 40
0.6290793431579795
 40
0.7006196396627309
 40
0.7651875409456778
 40
0.831564757704746
 40
0.8975646767864484
 40
0.9652190518957922
 40
1.0
 40
1.0
 40
1.0
 40
1.0
 10
208.9539210572453
 20
-12.43023002409632
 30
0.0
 10
209.2214634599277
 20
-12.2674008990532
 30
0.0
 10
209.7646643248596
 20
-11.93680312960532
 30
0.0
 10
210.6148033645755
 20
-11.30787519198515
 30
0.0
 10
211.464469559361
 20
-10.59415208952305
 30
0.0
 10
212.2858204881045
 20
-9.802186608203
 30
0.0
 10
213.0617592714036
 20
-8.93042502110787
 30
0.0
 10
213.7555614267104
 20
-7.989768745289928
 30
0.0
 10
214.3323163822378
 20
-6.985343139904857
 30
0.0
 10
214.7346525561277
 20
-5.966742016681757
 30
0.0
 10
214.9427689451683
 20
-4.95382411833796
 30
0.0
 10
214.9475426434132
 20
-4.01631728128354
 30
0.0
 10
214.7671834796681
 20
-3.149419723145638
 30
0.0
 10
214.4317294648227
 20
-2.38166047282647
 30
0.0
 10
213.9412662871261
 20
-1.712815992181184
 30
0.0
 10
213.4398879633888
 20
-1.227081188279251
 30
0.0
 10
213.0720821031067
 20
-1.031224356917573
 30
0.0
 10
212.9471970913981
 20
-0.9647230166206916
 30
0.0
  0
SPLINE
  5
114
330
1F
100
AcDbEntity
  8
0
  6
Continuous
 62
     7
370
    25
100
AcDbSpline
210
0.0
220
0.0
230
1.0
 70
     8
 71
     3
 72
    13
 73
     9
 74
     0
 42
0.00000001
 43
0.00000001
 40
0.0
 40
0.0
 40
0.0
 40
0.0
 40
0.0729381833899497
 40
0.2901804949975226
 40
0.5139405991799276
 40
0.7265136481016318
 40
0.9461398258577701
 40
1.0
 40
1.0
 40
1.0
 40
1.0
 10
205.9702292483161
 20
-13.05039164784381
 30
0.0
 10
206.0139398656106
 20
-13.08216822759433
 30
0.0
 10
206.1878401188612
 20
-13.20858957801426
 30
0.0
 10
206.6003831157536
 20
-13.25962836216286
 30
0.0
 10
207.2083120181336
 20
-13.19733040352161
 30
0.0
 10
207.9292120361267
 20
-12.95838384135604
 30
0.0
 10
208.528198517638
 20
-12.67203088919078
 30
0.0
 10
208.8838745215546
 20
-12.47001488712589
 30
0.0
 10
208.9539210572453
 20
-12.43023002409632
 30
0.0
  0
LWPOLYLINE
  5
115
330
1F
100
AcDbEntity
  8
0
  6
Continuous
 62
     7
370
    25
100
AcDbPolyline
 90
       49
 70
   128
 43
0.0
 10
194.8117854335
 20
-2.6324037818
 10
194.8420324162
 20
-2.0820427555
 10
194.93225583
 20
-1.5061761361
 10
195.0809119273
 20
-0.9146571612
 10
195.285457161
 20
-0.3176068842
 10
195.5423917055
 20
0.2747589988
 10
195.8473193394
 20
0.8523049436
 10
196.1950226666
 20
1.4051489787
 10
196.5795523865
 20
1.9238317896
 10
196.9943290891
 20
2.3994785695
 10
197.43225583
 20
2.8239508701
 10
197.8858395612
 20
3.1899858527
 10
198.3473193394
 20
3.4913205572
 10
198.8087991177
 20
3.7227990633
 10
199.2623828489
 20
3.8804607097
 10
199.7003095898
 20
3.9616078617
 10
200.1150862924
 20
3.9648520692
 10
200.4996160123
 20
3.8901378228
 10
200.8473193394
 20
3.738743504
 10
201.1522469734
 20
3.5132595116
 10
201.4091815179
 20
3.2175439392
 10
201.6137267516
 20
2.8566565623
 10
201.7623828489
 20
2.4367722639
 10
201.8526062627
 20
1.9650753807
 10
201.8828532454
 20
1.4496367773
 10
201.8526062627
 20
0.8992757511
 10
201.7623828489
 20
0.3234091317
 10
201.6137267516
 20
-0.2681098433
 10
201.4091815179
 20
-0.8651601202
 10
201.1522469734
 20
-1.4575260033
 10
200.8473193394
 20
-2.035071948
 10
200.4996160123
 20
-2.5879159832
 10
200.1150862924
 20
-3.106598794
 10
199.7003095898
 20
-3.5822455739
 10
199.2623828489
 20
-4.0067178745
 10
198.8087991177
 20
-4.3727528571
 10
198.3473193394
 20
-4.6740875617
 10
197.8858395612
 20
-4.9055660678
 10
197.43225583
 20
-5.0632277141
 10
196.9943290891
 20
-5.1443748661
 10
196.5795523865
 20
-5.1476190736
 10
196.1950226666
 20
-5.0729048272
 10
195.8473193394
 20
-4.9215105084
 10
195.5423917055
 20
-4.6960265161
 10
195.285457161
 20
-4.4003109437
 10
195.0809119273
 20
-4.0394235667
 10
194.93225583
 20
-3.6195392683
 10
194.8420324162
 20
-3.1478423852
 10
194.8117854335
 20
-2.6324037818
  0
LWPOLYLINE
  5
116
330
1F
100
AcDbEntity
  8
0
  6
Continuous
 62
     7
370
    25
100
AcDbPolyline
 90
       92
 70
   128
 43
0.0
 10
251.3803279284
 20
58.6048396081
 10
251.4098126794
 20
57.601971935
 10
251.4981264241
 20
56.5698410142
 10
251.6448483073
 20
55.5133654196
 10
251.8492791324
 20
54.4375797384
 10
252.1104446934
 20
53.3476105795
 10
252.4271004175
 20
52.248652142
 10
252.797737296
 20
51.1459414636
 10
253.2205890754
 20
50.0447334627
 10
253.6936406742
 20
48.950275897
 10
254.2146377864
 20
47.8677843552
 10
254.7810976233
 20
46.8024174024
 10
255.3903207459
 20
45.7592519973
 10
256.0394039285
 20
44.7432592981
 10
256.7252539943
 20
43.7592809728
 10
257.4446025552
 20
42.8120061261
 10
258.1940215879
 20
41.9059489541
 10
258.9699397693
 20
41.0454272319
 10
259.768659496
 20
40.2345417372
 10
260.5863745047
 20
39.4771567088
 10
261.419188011
 20
38.7768814313
 10
262.2631312794
 20
38.1370530351
 10
263.1141825357
 20
37.5607205942
 10
263.9682861333
 20
37.0506305948
 10
264.8213718794
 20
36.6092138483
 10
265.6693744321
 20
36.2385739064
 10
266.5082526729
 20
35.9404770372
 10
267.3340089651
 20
35.7163438081
 10
268.1427082039
 20
35.567242316
 10
268.9304965691
 20
35.4938830973
 10
269.6936198904
 20
35.4966157423
 10
270.4284415376
 20
35.5754272284
 10
271.131459751
 20
35.7299419833
 10
271.7993243286
 20
35.9594236736
 10
272.4288525916
 20
36.2627787146
 10
273.0170445511
 20
36.6385614815
 10
273.5610972045
 20
37.0849811981
 10
274.0584178933
 20
37.5999104713
 10
274.5066366578
 20
38.1808954285
 10
274.9036175315
 20
38.8251674118
 10
275.2474687198
 20
39.529656172
 10
275.5365516151
 20
40.2910044991
 10
275.7694886059
 20
41.1055842216
 10
275.9451696412
 20
41.9695134964
 10
276.062757521
 20
42.8786753069
 10
276.1216918855
 20
43.828737083
 10
276.1216918855
 20
44.8151713478
 10
276.062757521
 20
45.8332772928
 10
275.9451696412
 20
46.8782031795
 10
275.7694886059
 20
47.9449694601
 10
275.5365516151
 20
49.0284925077
 10
275.2474687198
 20
50.1236088413
 10
274.9036175315
 20
51.2250997329
 10
274.5066366578
 20
52.327716077
 10
274.0584178933
 20
53.4262034043
 10
273.5610972045
 20
54.5153269226
 10
273.0170445511
 20
55.5898964624
 10
272.4288525916
 20
56.6447912103
 10
271.7993243286
 20
57.6749841126
 10
271.131459751
 20
58.6755658309
 10
270.4284415376
 20
59.6417681377
 10
269.6936198904
 20
60.5689866389
 10
268.9304965691
 20
61.4528027162
 10
268.1427082039
 20
62.2890045835
 10
267.3340089651
 20
63.073607358
 10
266.5082526729
 20
63.8028720502
 10
265.6693744321
 20
64.4733233818
 10
264.8213718794
 20
65.0817663469
 10
263.9682861333
 20
65.6253014375
 10
263.1141825357
 20
66.1013384616
 10
262.2631312794
 20
66.5076088859
 10
261.419188011
 20
66.8421766468
 10
260.5863745047
 20
67.1034473766
 10
259.768659496
 20
67.2901760012
 10
258.9699397693
 20
67.4014726738
 10
258.1940215879
 20
67.436807015
 10
257.4446025552
 20
67.3960106405
 10
256.7252539943
 20
67.2792779637
 10
256.0394039285
 20
67.087165269
 10
255.3903207459
 20
66.8205880607
 10
254.7810976233
 20
66.4808167008
 10
254.2146377864
 20
66.0694703545
 10
253.6936406742
 20
65.5885092744
 10
253.2205890754
 20
65.0402254591
 10
252.797737296
 20
64.4272317307
 10
252.4271004175
 20
63.7524492835
 10
252.1104446934
 20
63.0190937631
 10
251.8492791324
 20
62.2306599425
 10
251.6448483073
 20
61.3909050679
 10
251.4981264241
 20
60.5038309538
 10
251.4098126794
 20
59.5736649123
 10
251.3803279284
 20
58.6048396081
  0
LWPOLYLINE
  5
117
330
1F
100
AcDbEntity
  8
0
  6
Continuous
 62
     7
370
    25
100
AcDbPolyline
 90
       78
 70
   128
 43
0.0
 10
254.9158618344
 20
56.5638193285
 10
254.9452723279
 20
57.378786719
 10
255.0333080865
 20
58.154374003
 10
255.1793832467
 20
58.885419775
 10
255.3825257025
 20
59.567059046
 10
255.6413835742
 20
60.1947556192
 10
255.9542342056
 20
60.7643322773
 10
256.3189956272
 20
61.2719985818
 10
256.7332404119
 20
61.7143760971
 10
257.1942118291
 20
62.0885208739
 10
257.6988421901
 20
62.3919430403
 10
258.243773263
 20
62.622623372
 10
258.8253786215
 20
62.7790267294
 10
259.4397877778
 20
62.8601122739
 10
260.0829119404
 20
62.8653403946
 10
260.7504712242
 20
62.7946762993
 10
261.4380231321
 20
62.6485902458
 10
262.1409921198
 20
62.4280544127
 10
262.8547000445
 20
62.1345364297
 10
263.5743972978
 20
61.7699896104
 10
264.2952944131
 20
61.3368399537
 10
265.0125939393
 20
60.8379699993
 10
265.7215223662
 20
60.2766996443
 10
266.4173618921
 20
59.6567640504
 10
267.0954818197
 20
58.9822887866
 10
267.751369373
 20
58.2577623745
 10
268.3806597283
 20
57.4880064179
 10
268.9791650622
 20
56.6781435157
 10
269.5429024205
 20
55.8335631718
 10
270.0681202241
 20
54.9598859291
 10
270.551323235
 20
54.0629259655
 10
270.9892958171
 20
53.1486524016
 10
271.3791233349
 20
52.2231495771
 10
271.7182115508
 20
51.2925765606
 10
272.0043038886
 20
50.3631261619
 10
272.235496451
 20
49.4409837202
 10
272.4102506896
 20
48.5322859413
 10
272.5274036438
 20
47.6430800589
 10
272.58617568
 20
46.7792835915
 10
272.58617568
 20
45.946644962
 10
272.5274036438
 20
45.1507052432
 10
272.4102506896
 20
44.3967612826
 10
272.235496451
 20
43.6898304528
 10
272.0043038886
 20
43.0346172619
 10
271.7182115508
 20
42.4354820455
 10
271.3791233349
 20
41.8964119497
 10
270.9892958171
 20
41.420994397
 10
270.551323235
 20
41.0123932128
 10
270.0681202241
 20
40.6733275705
 10
269.5429024205
 20
40.4060538961
 10
268.9791650622
 20
40.2123508518
 10
268.3806597283
 20
40.0935074994
 10
267.751369373
 20
40.0503147217
 10
267.0954818197
 20
40.0830599596
 10
266.4173618921
 20
40.1915252989
 10
265.7215223662
 20
40.3749889208
 10
265.0125939393
 20
40.6322299049
 10
264.2952944131
 20
40.9615363552
 10
263.5743972978
 20
41.3607167913
 10
262.8547000445
 20
41.8271147335
 10
262.1409921198
 20
42.3576263804
 10
261.4380231321
 20
42.9487212644
 10
260.7504712242
 20
43.5964657467
 10
260.0829119404
 20
44.2965491945
 10
259.4397877778
 20
45.0443126681
 10
258.8253786215
 20
45.8347799249
 10
258.243773263
 20
46.6626905357
 10
257.6988421901
 20
47.522534892
 10
257.1942118291
 20
48.4085908715
 10
256.7332404119
 20
49.3149619178
 10
256.3189956272
 20
50.2356162812
 10
255.9542342056
 20
51.1644271588
 10
255.6413835742
 20
52.0952134673
 10
255.3825257025
 20
53.0217809776
 10
255.1793832467
 20
53.9379635356
 10
255.0333080865
 20
54.8376640977
 10
254.9452723279
 20
55.7148953049
 10
254.9158618344
 20
56.5638193285
  0
LWPOLYLINE
  5
118
330
1F
100
AcDbEntity
  8
0
  6
Continuous
 62
     7
370
    25
100
AcDbPolyline
 90
       92
 70
   128
 43
0.0
 10
208.9539210572
 20
-14.8798524598
 10
209.8371276641
 20
-14.4040305073
 10
210.7750948913
 20
-13.9645184319
 10
211.7633528977
 20
-13.563410709
 10
212.797192184
 20
-13.2026187993
 10
213.8716860351
 20
-12.8838620407
 10
214.9817139985
 20
-12.6086594544
 10
216.1219862855
 20
-12.3783225058
 10
217.2870689794
 20
-12.1939488556
 10
218.4714099305
 20
-12.0564171281
 10
219.6693652148
 20
-11.9663827245
 10
220.8752260299
 20
-11.9242747
 10
222.0832458998
 20
-11.9302937183
 10
223.2876680598
 20
-11.9844110961
 10
224.4827528898
 20
-12.0863689394
 10
225.6628052662
 20
-12.2356813728
 10
226.8222017022
 20
-12.4316368544
 10
227.9554171457
 20
-12.6733015672
 10
229.057051309
 20
-12.9595238686
 10
230.1218544038
 20
-13.2889397793
 10
231.1447521583
 20
-13.6599794822
 10
232.120869999
 20
-14.0708748042
 10
233.0455562798
 20
-14.5196676421
 10
233.9144044494
 20
-15.0042192935
 10
234.7232740507
 20
-15.5222206492
 10
235.4683104516
 20
-16.0712031969
 10
236.1459632145
 20
-16.6485507846
 10
236.7530030153
 20
-17.2515120882
 10
237.2865370329
 20
-17.8772137225
 10
237.7440227347
 20
-18.5226739342
 10
238.1232799931
 20
-19.1848168116
 10
238.4225014744
 20
-19.8604869423
 10
238.6402612522
 20
-20.5464644503
 10
238.7755216018
 20
-21.2394803406
 10
238.8276379461
 20
-21.9362320767
 10
238.7963619269
 20
-22.6333993193
 10
238.6818425888
 20
-23.3276597491
 10
238.4846256686
 20
-24.015704899
 10
238.2056509947
 20
-24.6942559203
 10
237.8462480084
 20
-25.3600792087
 10
237.4081294287
 20
-26.0100018127
 10
236.8933830901
 20
-26.6409265554
 10
236.3044619933
 20
-27.2498467928
 10
235.6441726155
 20
-27.8338607429
 10
234.9156615364
 20
-28.3901853132
 10
234.122400443
 20
-28.9161693638
 10
233.2681695856
 20
-29.409306341
 10
232.3570397633
 20
-29.8672462227
 10
231.3933529246
 20
-30.2878067168
 10
230.3817014761
 20
-30.668983661
 10
229.3269063978
 20
-31.0089605736
 10
228.2339942685
 20
-31.3061173097
 10
227.1081733122
 20
-31.5590377822
 10
225.9548085785
 20
-31.7665167099
 10
224.7793963756
 20
-31.9275653611
 10
223.5875380779
 20
-32.0414162658
 10
222.3849134329
 20
-32.1075268725
 10
221.1772534948
 20
-32.125582134
 10
219.9703133131
 20
-32.0954960088
 10
218.7698445075
 20
-32.0174118711
 10
217.5815678584
 20
-31.8917018272
 10
216.4111460453
 20
-31.7189649428
 10
215.2641566611
 20
-31.5000243878
 10
214.1460656326
 20
-31.2359235137
 10
213.0622011726
 20
-30.9279208814
 10
212.017728389
 20
-30.5774842637
 10
211.0176246701
 20
-30.1862836506
 10
210.0666559657
 20
-29.7561832913
 10
209.1693540747
 20
-29.2892328098
 10
208.3299950493
 20
-28.7876574378
 10
207.5525788174
 20
-28.2538474103
 10
206.8408101213
 20
-27.6903465754
 10
206.1980808632
 20
-27.099840271
 10
205.6274539406
 20
-26.4851425286
 10
205.1316486506
 20
-25.8491826628
 10
204.7130277313
 20
-25.1949913122
 10
204.3735861019
 20
-24.5256859962
 10
204.1149413564
 20
-23.8444562597
 10
203.9383260549
 20
-23.1545484725
 10
203.8445818496
 20
-22.4592503594
 10
203.8341554743
 20
-21.7618753325
 10
203.9070966156
 20
-21.0657467014
 10
204.0630576756
 20
-20.3741818362
 10
204.3012954289
 20
-19.6904763582
 10
204.6206745641
 20
-19.0178884355
 10
205.0196730942
 20
-18.3596232558
 10
205.4963896094
 20
-17.7188177524
 10
206.0485523384
 20
-17.0985256554
 10
206.6735299745
 20
-16.5017029392
 10
207.3683442146
 20
-15.9311937357
 10
208.1296839524
 20
-15.3897167811
 10
208.9539210572
 20
-14.8798524598
  0
LWPOLYLINE
  5
119
330
1F
100
AcDbEntity
  8
0
  6
Continuous
 62
     7
370
    25
100
AcDbPolyline
 90
       78
 70
   128
 43
0.0
 10
212.4894549632
 20
-16.9208727393
 10
211.7984183676
 20
-17.3537563076
 10
211.1708014937
 20
-17.8177157401
 10
210.610781028
 20
-18.3096634635
 10
210.1220838146
 20
-18.8263256468
 10
209.7079620525
 20
-19.3642639884
 10
209.3711716539
 20
-19.9198985975
 10
209.1139539034
 20
-20.4895318173
 10
208.9380205425
 20
-21.0693728327
 10
208.8445423788
 20
-21.6555628975
 10
208.834141494
 20
-22.2442010136
 10
208.9068871043
 20
-22.8313698913
 10
209.0622950998
 20
-23.4131620186
 10
209.2993312657
 20
-23.985705665
 10
209.6164181655
 20
-24.5451906469
 10
210.0114456383
 20
-25.0878936841
 10
210.4817848413
 20
-25.6102031774
 10
211.0243057448
 20
-26.1086432434
 10
211.6353979617
 20
-26.5798968455
 10
212.3109947741
 20
-27.0208278689
 10
213.0466001966
 20
-27.4285019903
 10
213.8373188966
 20
-27.8002062057
 10
214.6778887716
 20
-28.133466885
 10
215.5627159676
 20
-28.4260662331
 10
216.4859121058
 20
-28.6760570498
 10
217.4413334682
 20
-28.8817756875
 10
218.4226218831
 20
-29.0418531224
 10
219.4232470382
 20
-29.1552240658
 10
220.436549938
 20
-29.2211340527
 10
221.455787219
 20
-29.2391444629
 10
222.4741760253
 20
-29.2091354403
 10
223.4849391473
 20
-29.1313066898
 10
224.4813501232
 20
-29.0061761491
 10
225.4567780024
 20
-28.8345765411
 10
226.4047314734
 20
-28.6176498329
 10
227.318902062
 20
-28.3568396361
 10
228.193206114
 20
-28.0538815994
 10
229.02182528
 20
-27.7107918586
 10
229.7992452363
 20
-27.3298536194
 10
230.5202923812
 20
-26.9136019627
 10
231.1801682651
 20
-26.4648069749
 10
231.7744815228
 20
-25.9864553123
 10
232.2992770976
 20
-25.4817303265
 10
232.7510625615
 20
-24.9539908789
 10
233.1268313569
 20
-24.4067489885
 10
233.4240828043
 20
-23.8436464598
 10
233.6408387445
 20
-23.2684306472
 10
233.7756567023
 20
-22.6849295171
 10
233.8276394867
 20
-22.0970261731
 10
233.7964411606
 20
-21.5086330151
 10
233.6822693439
 20
-20.9236657024
 10
233.4858838311
 20
-20.3460170959
 10
233.2085915354
 20
-19.779531352
 10
232.8522377913
 20
-19.2279783396
 10
232.4191940741
 20
-18.6950285532
 10
231.9123422184
 20
-18.1842286856
 10
231.3350552396
 20
-17.6989780256
 10
230.6911748873
 20
-17.2425058364
 10
229.984986079
 20
-16.8178498651
 10
229.2211883848
 20
-16.4278361269
 10
228.4048647523
 20
-16.0750600992
 10
227.5414476805
 20
-15.761869448
 10
226.6366830677
 20
-15.4903484056
 10
225.696591973
 20
-15.2623038996
 10
224.7274305476
 20
-15.0792535287
 10
223.7356484008
 20
-14.9424154628
 10
222.7278456793
 20
-14.8527003367
 10
221.7107291438
 20
-14.8107051897
 10
220.6910675371
 20
-14.8167094927
 10
219.675646539
 20
-14.870673288
 10
218.6712236086
 20
-14.9722374554
 10
217.6844830148
 20
-15.1207261021
 10
216.7219913536
 20
-15.3151510607
 10
215.790153848
 20
-15.5542184653
 10
214.895171723
 20
-15.8363373615
 10
214.0430009369
 20
-16.1596302949
 10
213.2393125458
 20
-16.5219458041
 10
212.4894549632
 20
-16.9208727393
  0
LWPOLYLINE
  5
11A
330
1F
100
AcDbEntity
  8
0
  6
Continuous
 62
     1
370
    25
100
AcDbPolyline
 90
       36
 70
   128
 43
0.0
 10
230.1671244928
 20
46.3587179307
 10
230.1966092438
 20
45.3558502577
 10
230.2849229885
 20
44.3237193369
 10
230.4316448717
 20
43.2672437422
 10
230.6360756968
 20
42.1914580611
 10
230.8972412578
 20
41.1014889021
 10
231.2138969819
 20
40.0025304647
 10
231.5845338604
 20
38.8998197863
 10
232.0073856398
 20
37.7986117854
 10
232.4804372386
 20
36.7041542197
 10
233.0014343508
 20
35.6216626778
 10
233.5678941877
 20
34.556295725
 10
234.1771173103
 20
33.5131303199
 10
234.8262004929
 20
32.4971376208
 10
235.5120505587
 20
31.5131592955
 10
236.2313991196
 20
30.5658844488
 10
236.9808181523
 20
29.6598272768
 10
237.7567363337
 20
28.7993055545
 10
238.5554560604
 20
27.9884200599
 10
239.3731710691
 20
27.2310350315
 10
240.2059845754
 20
26.5307597539
 10
241.0499278438
 20
25.8909313578
 10
241.9009791001
 20
25.3145989168
 10
242.7550826977
 20
24.8045089175
 10
243.6081684438
 20
24.363092171
 10
244.4561709965
 20
23.992452229
 10
245.2950492373
 20
23.6943553599
 10
246.1208055296
 20
23.4702221308
 10
246.9295047683
 20
23.3211206386
 10
247.7172931335
 20
23.24776142
 10
248.4804164548
 20
23.2504940649
 10
249.215238102
 20
23.3293055511
 10
249.9182563154
 20
23.483820306
 10
250.586120893
 20
23.7133019963
 10
251.215649156
 20
24.0166570373
 10
251.2907820742
 20
24.0592918606
  0
ARC
  5
11B
330
1F
100
AcDbEntity
  8
0
  6
Continuous
 62
     1
370
    25
100
AcDbCircle
 10
240.1771308924
 20
46.9246038221
 30
0.0
 40
10.02598897668135
100
AcDbArc
 50
140.551706136
 51
183.2356022854
  0
LWPOLYLINE
  5
11C
330
1F
100
AcDbEntity
  8
0
  6
Continuous
 62
     1
370
    25
100
AcDbPolyline
 90
       36
 70
   128
 43
0.0
 10
208.9539210572
 20
9.6163718968
 10
209.8371276641
 20
10.0921938493
 10
210.7750948913
 20
10.5317059246
 10
211.7633528977
 20
10.9328136476
 10
212.797192184
 20
11.2936055573
 10
213.8716860351
 20
11.6123623158
 10
214.9817139985
 20
11.8875649022
 10
216.1219862855
 20
12.1179018507
 10
217.2870689794
 20
12.302275501
 10
218.4714099305
 20
12.4398072285
 10
219.6693652148
 20
12.529841632
 10
220.8752260299
 20
12.5719496566
 10
222.0832458998
 20
12.5659306383
 10
223.2876680598
 20
12.5118132605
 10
224.4827528898
 20
12.4098554171
 10
225.6628052662
 20
12.2605429838
 10
226.8222017022
 20
12.0645875022
 10
227.9554171457
 20
11.8229227894
 10
229.057051309
 20
11.5367004879
 10
230.1218544038
 20
11.2072845773
 10
231.1447521583
 20
10.8362448744
 10
232.120869999
 20
10.4253495523
 10
233.0455562798
 20
9.9765567145
 10
233.9144044494
 20
9.492005063
 10
234.7232740507
 20
8.9740037073
 10
235.4683104516
 20
8.4250211597
 10
236.1459632145
 20
7.847673572
 10
236.7530030153
 20
7.2447122684
 10
237.2865370329
 20
6.6190106341
 10
237.7440227347
 20
5.9735504223
 10
238.1232799931
 20
5.3114075449
 10
238.4225014744
 20
4.6357374143
 10
238.6402612522
 20
3.9497599062
 10
238.7755216018
 20
3.256744016
 10
238.8276379461
 20
2.5599922799
 10
238.828289728
 20
2.4728009184
  0
ARC
  5
11D
330
1F
100
AcDbEntity
  8
0
  6
Continuous
 62
     1
370
    25
100
AcDbCircle
 10
213.4659959472
 20
0.6678341309
 30
0.0
 40
10.02173378011906
100
AcDbArc
 50
116.7583754556
 51
159.4748933442
  0
ENDSEC
  0
SECTION
  2
OBJECTS
  0
DICTIONARY
  5
C
330
0
100
AcDbDictionary
281
     1
  3
ACAD_GROUP
350
D
  3
ACAD_LAYOUT
350
1A
  3
ACAD_MLINESTYLE
350
17
  3
ACAD_PLOTSETTINGS
350
19
  3
ACAD_PLOTSTYLENAME
350
E
  3
ACAD_SCALELIST
350
47
  3
DWGPROPS
350
11E
  0
DICTIONARY
  5
D
102
{ACAD_REACTORS
330
C
102
}
330
C
100
AcDbDictionary
281
     1
  0
DICTIONARY
  5
1A
102
{ACAD_REACTORS
330
C
102
}
330
C
100
AcDbDictionary
281
     1
  3
Layout1
350
1E
  3
Layout2
350
26
  3
Model
350
22
  0
DICTIONARY
  5
17
102
{ACAD_REACTORS
330
C
102
}
330
C
100
AcDbDictionary
281
     1
  3
Standard
350
18
  0
DICTIONARY
  5
19
102
{ACAD_REACTORS
330
C
102
}
330
C
100
AcDbDictionary
281
     1
  0
ACDBDICTIONARYWDFLT
  5
E
102
{ACAD_REACTORS
330
C
102
}
330
C
100
AcDbDictionary
281
     1
  3
Normal
350
F
100
AcDbDictionaryWithDefault
340
F
  0
DICTIONARY
  5
47
102
{ACAD_REACTORS
330
C
102
}
330
C
100
AcDbDictionary
281
     1
  3
A0
350
48
  3
A1
350
49
  3
A2
350
4A
  3
A3
350
4B
  3
A4
350
4C
  3
A5
350
4D
  3
A6
350
4E
  3
A7
350
4F
  3
A8
350
50
  3
A9
350
51
  3
B0
350
52
  3
B1
350
53
  3
B2
350
54
  3
B3
350
55
  3
B4
350
56
  3
B5
350
57
  3
B6
350
58
  3
B7
350
59
  3
B8
350
5A
  3
B9
350
5B
  3
C0
350
5C
  3
C1
350
5D
  3
C2
350
5E
  3
C3
350
5F
  3
C4
350
60
  3
C5
350
61
  3
C6
350
62
  3
C7
350
63
  3
C8
350
64
  3
C9
350
65
  3
D0
350
66
  3
D1
350
67
  3
D2
350
68
  0
XRECORD
  5
11E
102
{ACAD_REACTORS
330
C
102
}
330
C
100
AcDbXrecord
280
     1
  1
DWGPROPS COOKIE
  2

  3

  4

  6

  7

  8
b.kav
  9

300
=
301
=
302
=
303
=
304
=
305
=
306
=
307
=
308
=
309
=
 40
0.0
 41
2460665.489577997
 42
2460665.489578102
  1

 90
        0
  0
LAYOUT
  5
1E
102
{ACAD_REACTORS
330
1A
102
}
330
1A
100
AcDbPlotSettings
  1

  2
none_device
  4

  6

 40
0.0
 41
0.0
 42
0.0
 43
0.0
 44
0.0
 45
0.0
 46
0.0
 47
0.0
 48
0.0
 49
0.0
140
0.0
141
0.0
142
1.0
143
1.0
 70
   688
 72
     1
 73
     0
 74
     5
  7

 75
    16
147
1.0
148
0.0
149
0.0
100
AcDbLayout
  1
Layout1
 70
     1
 71
     1
 10
0.0
 20
0.0
 11
420.0
 21
297.0
 12
0.0
 22
0.0
 32
0.0
 14
1.0000000000E+20
 24
1.0000000000E+20
 34
1.0000000000E+20
 15
-1.0000000000E+20
 25
-1.0000000000E+20
 35
-1.0000000000E+20
146
0.0
 13
0.0
 23
0.0
 33
0.0
 16
1.0
 26
0.0
 36
0.0
 17
0.0
 27
1.0
 37
0.0
 76
     0
330
1B
  0
LAYOUT
  5
26
102
{ACAD_REACTORS
330
1A
102
}
330
1A
100
AcDbPlotSettings
  1

  2
none_device
  4

  6

 40
0.0
 41
0.0
 42
0.0
 43
0.0
 44
0.0
 45
0.0
 46
0.0
 47
0.0
 48
0.0
 49
0.0
140
0.0
141
0.0
142
1.0
143
1.0
 70
   688
 72
     1
 73
     0
 74
     5
  7

 75
    16
147
1.0
148
0.0
149
0.0
100
AcDbLayout
  1
Layout2
 70
     1
 71
     2
 10
0.0
 20
0.0
 11
0.0
 21
0.0
 12
0.0
 22
0.0
 32
0.0
 14
0.0
 24
0.0
 34
0.0
 15
0.0
 25
0.0
 35
0.0
146
0.0
 13
0.0
 23
0.0
 33
0.0
 16
1.0
 26
0.0
 36
0.0
 17
0.0
 27
1.0
 37
0.0
 76
     0
330
23
  0
LAYOUT
  5
22
102
{ACAD_REACTORS
330
1A
102
}
330
1A
100
AcDbPlotSettings
  1

  2
none_device
  4
Letter_(8.50_x_11.00_Inches)
  6

 40
6.35
 41
6.35
 42
6.35000508
 43
6.35000508
 44
215.9
 45
279.4
 46
0.0
 47
0.0
 48
0.0
 49
0.0
140
0.0
141
0.0
142
1.0
143
1.0
 70
  1712
 72
     1
 73
     0
 74
     0
  7

 75
     0
147
1.0
148
0.0
149
0.0
100
AcDbLayout
  1
Model
 70
     1
 71
     0
 10
0.0
 20
0.0
 11
279.4
 21
215.9
 12
0.0
 22
0.0
 32
0.0
 14
0.0
 24
0.0
 34
0.0
 15
279.4
 25
215.9
 35
0.0
146
0.0
 13
0.0
 23
0.0
 33
0.0
 16
1.0
 26
0.0
 36
0.0
 17
0.0
 27
1.0
 37
0.0
 76
     0
330
1F
331
29
  0
MLINESTYLE
  5
18
102
{ACAD_REACTORS
330
17
102
}
330
17
100
AcDbMlineStyle
  2
Standard
 70
     0
  3

 62
   256
 51
90.0
 52
90.0
 71
     2
 49
0.5
 62
   256
  6
BYLAYER
 49
-0.5
 62
   256
  6
BYLAYER
  0
ACDBPLACEHOLDER
  5
F
102
{ACAD_REACTORS
330
E
102
}
330
E
  0
SCALE
  5
48
102
{ACAD_REACTORS
330
47
102
}
330
47
100
AcDbScale
 70
     0
300
1:1
140
1.0
141
1.0
290
     1
  0
SCALE
  5
49
102
{ACAD_REACTORS
330
47
102
}
330
47
100
AcDbScale
 70
     0
300
1:2
140
1.0
141
2.0
290
     0
  0
SCALE
  5
4A
102
{ACAD_REACTORS
330
47
102
}
330
47
100
AcDbScale
 70
     0
300
1:4
140
1.0
141
4.0
290
     0
  0
SCALE
  5
4B
102
{ACAD_REACTORS
330
47
102
}
330
47
100
AcDbScale
 70
     0
300
1:5
140
1.0
141
5.0
290
     0
  0
SCALE
  5
4C
102
{ACAD_REACTORS
330
47
102
}
330
47
100
AcDbScale
 70
     0
300
1:8
140
1.0
141
8.0
290
     0
  0
SCALE
  5
4D
102
{ACAD_REACTORS
330
47
102
}
330
47
100
AcDbScale
 70
     0
300
1:10
140
1.0
141
10.0
290
     0
  0
SCALE
  5
4E
102
{ACAD_REACTORS
330
47
102
}
330
47
100
AcDbScale
 70
     0
300
1:16
140
1.0
141
16.0
290
     0
  0
SCALE
  5
4F
102
{ACAD_REACTORS
330
47
102
}
330
47
100
AcDbScale
 70
     0
300
1:20
140
1.0
141
20.0
290
     0
  0
SCALE
  5
50
102
{ACAD_REACTORS
330
47
102
}
330
47
100
AcDbScale
 70
     0
300
1:30
140
1.0
141
30.0
290
     0
  0
SCALE
  5
51
102
{ACAD_REACTORS
330
47
102
}
330
47
100
AcDbScale
 70
     0
300
1:40
140
1.0
141
40.0
290
     0
  0
SCALE
  5
52
102
{ACAD_REACTORS
330
47
102
}
330
47
100
AcDbScale
 70
     0
300
1:50
140
1.0
141
50.0
290
     0
  0
SCALE
  5
53
102
{ACAD_REACTORS
330
47
102
}
330
47
100
AcDbScale
 70
     0
300
1:100
140
1.0
141
100.0
290
     0
  0
SCALE
  5
54
102
{ACAD_REACTORS
330
47
102
}
330
47
100
AcDbScale
 70
     0
300
2:1
140
2.0
141
1.0
290
     0
  0
SCALE
  5
55
102
{ACAD_REACTORS
330
47
102
}
330
47
100
AcDbScale
 70
     0
300
4:1
140
4.0
141
1.0
290
     0
  0
SCALE
  5
56
102
{ACAD_REACTORS
330
47
102
}
330
47
100
AcDbScale
 70
     0
300
8:1
140
8.0
141
1.0
290
     0
  0
SCALE
  5
57
102
{ACAD_REACTORS
330
47
102
}
330
47
100
AcDbScale
 70
     0
300
10:1
140
10.0
141
1.0
290
     0
  0
SCALE
  5
58
102
{ACAD_REACTORS
330
47
102
}
330
47
100
AcDbScale
 70
     0
300
100:1
140
100.0
141
1.0
290
     0
  0
SCALE
  5
59
102
{ACAD_REACTORS
330
47
102
}
330
47
100
AcDbScale
 70
     0
300
1/128" = 1'-0"
140
0.0078125
141
12.0
290
     0
  0
SCALE
  5
5A
102
{ACAD_REACTORS
330
47
102
}
330
47
100
AcDbScale
 70
     0
300
1/64" = 1'-0"
140
0.015625
141
12.0
290
     0
  0
SCALE
  5
5B
102
{ACAD_REACTORS
330
47
102
}
330
47
100
AcDbScale
 70
     0
300
1/32" = 1'-0"
140
0.03125
141
12.0
290
     0
  0
SCALE
  5
5C
102
{ACAD_REACTORS
330
47
102
}
330
47
100
AcDbScale
 70
     0
300
1/16" = 1'-0"
140
0.0625
141
12.0
290
     0
  0
SCALE
  5
5D
102
{ACAD_REACTORS
330
47
102
}
330
47
100
AcDbScale
 70
     0
300
3/32" = 1'-0"
140
0.09375
141
12.0
290
     0
  0
SCALE
  5
5E
102
{ACAD_REACTORS
330
47
102
}
330
47
100
AcDbScale
 70
     0
300
1/8" = 1'-0"
140
0.125
141
12.0
290
     0
  0
SCALE
  5
5F
102
{ACAD_REACTORS
330
47
102
}
330
47
100
AcDbScale
 70
     0
300
3/16" = 1'-0"
140
0.1875
141
12.0
290
     0
  0
SCALE
  5
60
102
{ACAD_REACTORS
330
47
102
}
330
47
100
AcDbScale
 70
     0
300
1/4" = 1'-0"
140
0.25
141
12.0
290
     0
  0
SCALE
  5
61
102
{ACAD_REACTORS
330
47
102
}
330
47
100
AcDbScale
 70
     0
300
3/8" = 1'-0"
140
0.375
141
12.0
290
     0
  0
SCALE
  5
62
102
{ACAD_REACTORS
330
47
102
}
330
47
100
AcDbScale
 70
     0
300
1/2" = 1'-0"
140
0.5
141
12.0
290
     0
  0
SCALE
  5
63
102
{ACAD_REACTORS
330
47
102
}
330
47
100
AcDbScale
 70
     0
300
3/4" = 1'-0"
140
0.75
141
12.0
290
     0
  0
SCALE
  5
64
102
{ACAD_REACTORS
330
47
102
}
330
47
100
AcDbScale
 70
     0
300
1" = 1'-0"
140
1.0
141
12.0
290
     0
  0
SCALE
  5
65
102
{ACAD_REACTORS
330
47
102
}
330
47
100
AcDbScale
 70
     0
300
1-1/2" = 1'-0"
140
1.5
141
12.0
290
     0
  0
SCALE
  5
66
102
{ACAD_REACTORS
330
47
102
}
330
47
100
AcDbScale
 70
     0
300
3" = 1'-0"
140
3.0
141
12.0
290
     0
  0
SCALE
  5
67
102
{ACAD_REACTORS
330
47
102
}
330
47
100
AcDbScale
 70
     0
300
6" = 1'-0"
140
6.0
141
12.0
290
     0
  0
SCALE
  5
68
102
{ACAD_REACTORS
330
47
102
}
330
47
100
AcDbScale
 70
     0
300
1'-0" = 1'-0"
140
12.0
141
12.0
290
     0
  0
ENDSEC
  0
EOF
